دروس+القيتار+ و+نوتات+و+فديو+غيتار+كوردات+تعليم
 
الرئيسيةس .و .جبحـثالتسجيلالمجموعاتدخول

شاطر | 
 

 طلبات كوردات الاغاني العربية والغربية

استعرض الموضوع السابق استعرض الموضوع التالي اذهب الى الأسفل 
انتقل الى الصفحة : الصفحة السابقة  1, 2
كاتب الموضوعرسالة
sine_bi
مشرف منتدى كوردات ونوتات القيتار


ذكر
عدد الرسائل : 555
العمر : 31
البلد : المغرب
الوظيفة : هههههه
علم بلدك :
المزاج :
اوسمة :
تاريخ التسجيل : 02/04/2008

مُساهمةموضوع: رد: طلبات كوردات الاغاني العربية والغربية   الإثنين يونيو 30, 2008 4:33 pm

sine_bi كتب:
azed كتب:
momkine aghani lilmoubtadi2ine bn;lgjlghl

مرحبا اخي الكريم غذا انشاء الله ستحصل على مرادك

حاول اخي ان تلعب هذه ستواجه بعض الصعوبات في الاول لكن مع الممارسة ستنجح حتما


Obispo Pascal / le chanteur idéal



couplet

E|-------|---------|-----------|-----------|---------|---------|---------|---1-0---|-----------|
B|---1---|-----1---|-----------|-----------|-----1---|---------|-----1---|-------1-|-----------|
G|-2---2-|-2-3---2-|-2-3-2-0-2-|-2-3-2-0---|-------2-|---2-0-0-|---2---2-|-2-------|-2-3-2-0-2-|
D|-------|---------|-----------|---------3-|-3-3-----|---------|---------|---------|-----------|
A|-------|---------|-----------|-----------|---------|-3-------|-3-------|---------|-----------|
E|-------|---------|-----------|-----------|---------|---------|---------|---------|-----------|

E|-----------|---------|---------|
B|-----1-----|-----1---|---------|
G|-2-3---3-2-|-------2-|---2-0---|
D|-----------|-3-3-----|-------3-|
A|-----------|---------|-3-------|
E|-----------|---------|---------|


refrain

E|-------------|-----------1-|-------|-1-1-0-0-----------|---------|-------------|-----------1-|
B|---1-------1-|-------------|---1---|---------3-3-1-1---|---------|---1-------1-|-------------|
G|-2---2-0-2---|-2-3-2-0-2---|-2---2-|-----------------2-|-2-0-----|-2---2-0-2---|-2-3-2-0-2---|
D|-------------|-------------|-------|-------------------|-----3-3-|-------------|-------------|
A|-------------|-------------|-------|-------------------|---------|-------------|-------------|
E|-------------|-------------|-------|-------------------|---------|-------------|-------------|

E|-------|-1-1-0-0-----------|---------|-5-|-------1-|-1-1-1-----|-------1-|
B|---1---|---------3-3-1-1---|---------|---|-3-1-3---|-------3-1-|-3-1-3---|
G|-2---2-|-----------------2-|-0-0-----|---|---------|-----------|---------|
D|-------|-------------------|-----3-3-|---|---------|-----------|---------|
A|-------|-------------------|---------|---|---------|-----------|---------|
E|-------|-------------------|---------|---|---------|-----------|---------|


couplet

E|-------|---------|-----------|-------------|---------|-------|---------|---1-0---|-----------|
B|---1---|-----1---|-----------|-------------|-----1---|-------|-----1---|-------1-|-----------|
G|-2---2-|-2-3---2-|-2-3-2-0-2-|-2-2-3-2-0---|-------2-|-2-0-0-|---2---2-|-2-------|-2-3-2-0-2-|
D|-------|---------|-----------|-----------3-|-3-3-----|-------|---------|---------|-----------|
A|-------|---------|-----------|-------------|---------|-------|-3-------|---------|-----------|
E|-------|---------|-----------|-------------|---------|-------|---------|---------|-----------|

E|-------------|---------|-------|
B|-------1-----|-----1---|-------|
G|-0-2-3---3-2-|-------2-|-2-0---|
D|-------------|-3-3-----|-----3-|
A|-------------|---------|-------|
E|-------------|---------|-------|


refrain

E|-------------|-----------1-|-------|-1-1-0-0-----------|---------|-------------|-----------1-|
B|---1-------1-|-------------|---1---|---------3-3-1-1---|---------|---1-------1-|-------------|
G|-2---2-0-2---|-2-3-2-0-2---|-2---2-|-----------------2-|-2-0-----|-2---2-0-2---|-2-3-2-0-2---|
D|-------------|-------------|-------|-------------------|-----3-3-|-------------|-------------|
A|-------------|-------------|-------|-------------------|---------|-------------|-------------|
E|-------------|-------------|-------|-------------------|---------|-------------|-------------|

E|-------|-1-1-0-0-----------|---------|-5-|-------1-|-1-1-1-----|-------1-|-------------|-------1-|
B|---1---|---------3-3-1-1---|---------|---|-3-1-3---|-------3-1-|-3-1-3---|-------------|-3-1-3---|
G|-2---2-|-----------------2-|-0-0-----|---|---------|-----------|---------|-----------2-|---------|
D|-------|-------------------|-----3-3-|---|---------|-----------|---------|-0-3-0-3-3---|---------|
A|-------|-------------------|---------|---|---------|-----------|---------|-------------|---------|
E|-------|-------------------|---------|---|---------|-----------|---------|-------------|---------|

E|-------------|-------1-|------------|
B|---1-3-1-----|-3-1-3---|------------|
G|-2-------3-2-|---------|---2-0-0----|
D|-------------|---------|--------3-3-|
A|-------------|---------|-3----------|
E|-------------|---------|------------|


وتدرب على هذه الكوردات

ABCDEFG
Equivalences : A->La , B->Si , C->Do , D->Ré , E->Mi , F->Fa , G->Sol

وانتظر المزيد اخي
الرجوع الى أعلى الصفحة اذهب الى الأسفل
معاينة صفحة البيانات الشخصي للعضو
azed
قيتارة جديد
قيتارة  جديد


ذكر
عدد الرسائل : 12
العمر : 25
البلد : morocco
علم بلدك :
المزاج :
تاريخ التسجيل : 29/06/2008

مُساهمةموضوع: رد: طلبات كوردات الاغاني العربية والغربية   الخميس يوليو 03, 2008 10:25 am

jaziil choukr 39
الرجوع الى أعلى الصفحة اذهب الى الأسفل
معاينة صفحة البيانات الشخصي للعضو
sine_bi
مشرف منتدى كوردات ونوتات القيتار


ذكر
عدد الرسائل : 555
العمر : 31
البلد : المغرب
الوظيفة : هههههه
علم بلدك :
المزاج :
اوسمة :
تاريخ التسجيل : 02/04/2008

مُساهمةموضوع: رد: طلبات كوردات الاغاني العربية والغربية   الخميس يوليو 03, 2008 4:23 pm

azed كتب:
jaziil choukr 39

شكرا على مرورك اخي ولو احتجت اية مساعدة فاترك طلبك هنا
الرجوع الى أعلى الصفحة اذهب الى الأسفل
معاينة صفحة البيانات الشخصي للعضو
azed
قيتارة جديد
قيتارة  جديد


ذكر
عدد الرسائل : 12
العمر : 25
البلد : morocco
علم بلدك :
المزاج :
تاريخ التسجيل : 29/06/2008

مُساهمةموضوع: رد: طلبات كوردات الاغاني العربية والغربية   الأحد يوليو 06, 2008 1:13 pm

moumkine tab nothing else matters (metalica) easy version
wa choukrane
الرجوع الى أعلى الصفحة اذهب الى الأسفل
معاينة صفحة البيانات الشخصي للعضو
sine_bi
مشرف منتدى كوردات ونوتات القيتار


ذكر
عدد الرسائل : 555
العمر : 31
البلد : المغرب
الوظيفة : هههههه
علم بلدك :
المزاج :
اوسمة :
تاريخ التسجيل : 02/04/2008

مُساهمةموضوع: رد: طلبات كوردات الاغاني العربية والغربية   الأحد يوليو 06, 2008 2:09 pm

azed كتب:
moumkine tab nothing else matters (metalica) easy version
wa choukrane

الله اودي طبعا طلبك موجود اخي تفضل :
هذه بداية الاغنية مع الصولو والتاب طبعا بعدها

6/8 time
E-------0-----|-------0-----|-------0-----|-------0---7-|
B-----0---0---|-----0---0---|-----0---0---|-----0---0---|
G---0-------0-|---0-------0-|---0-------0-|---0---------|
D-------------|-------------|-------------|-------------|
A-------------|-------------|-------------|-------------|
E-0-----------|-0-----------|-0-----------|-0-----------|

P (9/8 time) H P S P S
E-7-----------7^0---------|---------7---8---7^85---7-5^32-----|
B-----0-----------0-------|---------0---0-----------0-------5---|
G---------0-----------0---|-----0-------------------------------|
D-------------------------|-------------------------------------|
A-------------------------|-------------------------------------|
E-0-----------------------|-0-----------------------------------|

P
E-------------2^0---------|-------------0---0---0---|
B-5-------5-------5-------|---------5-------5---5---|
G-----5---------------5---|-----5-----------5---5---|
D-------------------------|-------------------------|
A-0-----------------------|-0---------------0---2---|
E-------------------------|-------------------------|
P H P P H
E-0-----------3^0-----0---|-0-----------0^5^0--------|
B-5-------5-------5---5---|-7-------7---------7^0-0^5|
G-5-----5---5-------5-5---|-7-----7---7--------------|
D-------------------------|--------------------------|
A-3---3---------------3---|-5---5--------------------|
E-------------------------|--------------------------|
<.NH.>
E-------12----|-------0-----|-------0-----|-------0-----|
B-----12--0---|-----0---0---|-----0---0---|-----0---0---|
G---12------0-|---0-------0-|---0-------0-|---0-------0-|
D-------------|-------------|-------------|-------------|
A-------------|-------------|-------------|-------------|
E-0-----------|-0-----------|-0-----------|-0-----------|

E-------------7-----------|-------------|-------------7-----------|
B-------------8-----------|-----7-----5-|-------------8-----------|
G-----------9-------------|-----7-----5-|-----------9-------------|
D---------9---------------|---7-----5---|---------9---------------|
A-------7-----------------|-5-----3-----|-------7-----------------|
E-0-----------------------|-------------|-0-----------------------|

E-------------|-------------7-----------|-----5-----------3-------|
B-----7-----5-|-------------8-----------|-------7-----------5-----|
G-----7-----5-|---------9---------------|---------7-----------5---|
D---7-----5---|-----------9-------------|-----7-----------5-------|
A-5-----3-----|-------7-----------------|-5-----------3-----------|
E-------------|-0-----------------------|-------------------------|

E-----3-----------2-------|-------0-----|-------0-----|
B-------3-----------4-----|-----0---0---|-----0---0---|
G---------4-----------2---|---0-------0-|---0-------0-|
D-----5-----------4-------|-------------|-------------|
A-------------2-----------|-------------|-------------|
E-3-----------------------|-0-----------|-0-----------|


Main guitar part :
E-------------3-----0-----|-2-----3-----0-----------|
B---------0-----------0---|---------3-------3-------|
G-----0-----------0-----0-|-----------0-------0-----|
D-------------------------|-0-----------------------|
A-------------------------|-------------3-----------|
E-0-----------------------|---------------------3-2-|

E-------------3-----0-----|-2-----------------------|
B---------0-----------0---|-------3-----3-----------|
G-----0-----------0-----0-|---------2^0-----0-------|
D-------------------------|-0--0--------------------|
A-------------------------|-------------3-----------|
E-0-----------------------|---------------------3-2-|

E-------------3-----0-----|-2-----3-----3-----------|
B---------0-----------0---|---------3-------3-------|
G-----0-----------0-----0-|-----------0---------0---|
D-------------------------|-0--0--------------------|
A-------------------------|-------------3-----------|
E-0-----------------------|-------------------------|

E---------3---2-------2---|-0-----0-----|-------------0-----------|
B---------3---0---------0-|-----0---0---|---------0-------0-------|
G-----0-------2-----------|---0-------0-|-----0-------------------|
D-------------------------|-------------|-------------------------|
A-------------2-----2-----|-------------|-------------------------|
E-3-----------------------|-0-----------|-0-------------------3-2-|

Chorus guitar part
1 2 3 4 5 6
E-------------|-2-----2-2-2-3---2--0--2-|
B-1-----2-----|-3-----3-3-3-3---3--3--3-|
G-0-----2-----|-2-----2-2-2-2---2--2--2-|
D-2-----2-----|-0-----0-0-0-0---0--0--0-|
A-3-----0-----|-------------------------|
E-------------|-------------------------|

E-------------|-2-----2-2-2-3---2--0--2-|
B-1-----2-----|-3-----3-3-3-3---3--3--3-|
G-0-----2-----|-2-----2-2-2-2---2--2--2-|
D-2-----2-----|-0-----0-0-0-0---0--0--0-|
A-3-----0-----|-------------------------|
E-------------|-------------------------|

E-------------|-2-----2-2-2-0-----------|
B-1-----2-----|-3-----3-3-3-0-----------|
G-0-----2-----|-2-----2-2-2-0-----------|
D-2-----2-----|-0-----0-0-0-2-----------|
A-3-----0-----|-------------2-----------|
E-------------|-------------0-----------|

Interlude - Complete!!
Guitar1
|-12------14---|-15-------17---|-8------8------|-------8--------|
|---12------12-|---12-------12-|---5------5----|----5-----5-----|
|--------------|---------------|-----5------5--|-5----------5--|
|--------------|---------------|---------------|----------------|
|--------------|---------------|---------------|----------------|
|--------------|---------------|---------------|----------------|
|
|Guitar2
|-15------17---|-19-------20---|-12------------|----------------|
|---17------17-|---17-------17-|---13----------|----------------|
|--------------|---------------|---------------|----------------|
|--------------|---------------|---------------|----------------|
|--------------|---------------|---------------|----------------|
|--------------|---------------|---------------|----------------|

Guitar1
|-0--------0---|-0--------0----|-0--7--7-0-----|--------0-------|
|----1-------1-|----3-------3--|-12--0---12-0--|------0---------|
|-------2------|-------2-------|------0-------0|----0-----------|
|--------------|---------------|---------------|----------------|
|--------------|---------------|---------------|----------------|
|--------------|---------------|---------------|-0--------------|
|
|Guitar2
|-12-----------|12/14----------|----12-12------|----------------|
|----13--------|----15---------|---------------|----------------|
|-------12-----|-------14------|---------------|----------------|
|--------------|---------------|---------------|----------------|
|--------------|---------------|---------------|----------------|
|--------------|---------------|---------------|----------------|

Guitar1
|-12------14---|-15-------17---|-8------8------|-------8--------|
|---12------12-|---12-------12-|---5------5----|----5-----5-----|
|--------------|---------------|-----5------5--|-5----------5--|
|--------------|---------------|---------------|----------------|
|--------------|---------------|---------------|----------------|
|--------------|---------------|---------------|----------------|
|
|Guitar2
|-15------17---|-19-------20---|-12------------|----------------|
|---17------17-|---17-------17-|---13----------|----------------|
|--------------|---------------|---------------|----------------|
|--------------|---------------|---------------|----------------|
|--------------|---------------|---------------|----------------|
|--------------|---------------|---------------|----------------|


Guitar1
|-0------0-----|-0------0------|-0-7----7-0----|--------0-------|
|---1------1---|---3------3----|----0-------0--|------0---0-----|
|-----2--------|-----2---------|-------0------0|----0-----------|
|--------------|---------------|---------------|----------------|
|--------------|---------------|---------------|----------------|
|--------------|---------------|---------------|-0----------3-2-|

GOTO MAIN GUITAR PART

Guitar solo :
E5 E5(VII) | D5(V) C5(III)
E5 E5(VII) | D5(V) C5(III)
E5 E5(VII) | D5(V) C5(III) | G5(III) B5(II) | E5

B B R V V
E---------------------------|-------------------------------------|
B-15------15----------------|-------------------------------------|
G-14(16)--14(16)14-12----12-|-11-12-11----11-------------12-14-12-|
D---------------------------|----------14----12-14----------------|
A---------------------------|-------------------------------------|
E---------------------------|-------------------------------------|
B B B R V
E-------12-------12-------------------|---------------------------|
G----12-------12----15-12----12-------|------------14----14-13----|
G-14(16)---14(16)---------15----15-14-|-12(14)12---14----14-13-12-|
D-------------------------------------|---------14----------------|
A-------------------------------------|---------------------------|
E-------------------------------------|---------------------------|
S H P S V
E-/15-14----15-14-17-|-15----14^15^1412----15-14-|---------------
B--------12----------|-------------------12-------|-12------------
G--------------------|----------------------------|------12-14-12-
D--------------------|----------------------------|---------------
A--------------------|----------------------------|---------------
E--------------------|----------------------------|---------------
B R B B R P B
E-------------------------|-12----------------------------|-------
B-15-------------------12-|-------15-15(17)15^12-15(17)---|-------
G-14(16)14-12----12-14(16)|-------------------------------|-------
D-------------14----------|-------------------------------|-------
A-------------------------|-------------------------------|-------
E-------------------------|-------------------------------|-------
H P S H P
E-----------------|--------------
B-12^15^12\\\7-|-5^7^5--------
G-----------------|--------------
D-----------------|--------------
A-----------------|--------------
E-----------------|--------------

Very last verse:
E-------------3-----0-----|-2-----3-----0-----------|
B---------0-----------0---|---------3-------3-------|
G-----0-----------0-----0-|-----------0-------0-----|
D-------------------------|-0-----------------------|
A-------------------------|-------------3-----------|
E-0-----------------------|---------------------3-2-|

E-------------3-----0-----|-2-----------------------|
B---------0-----------0---|-------3-----3-----------|
G-----0-----------0-----0-|---------2^0-----0-------|
D-------------------------|-0--0--------------------|
A-------------------------|-------------3-----------|
E-0-----------------------|---------------------3-2-|

E-------------3-----0-----|-2-----3-----3-----------|
B---------0-----------0---|---------3-------3-------|
G-----0-----------0-----0-|-----------0---------0---|
D-------------------------|-0--0--------------------|
A-------------------------|-------------3-----------|
E-0-----------------------|-------------------------|

E---------3---2-----2-----|-0-----0-----|-------------0-----------|
B---------3---0-----0-----|-----0---0---|---------0-------0-------|
G-----0-------2-----2-----|---0-------0-|-----0-------------------|
D-------------------------|-------------|-------------------------|
A-------------2-----2-----|-------------|-------------------------|
E-3-----------------------|-0-----------|-0-------------------3-2-|

The end :
E-0-----0-----|-------0---7-|-7-----------7^0---------|
B-----0---0---|-----0---0---|-----0-----------0-------|
G---0-------0-|---0---------|---------0-----------0---|
D-------------|-------------|-------------------------|
A-------------|-------------|-------------------------|
E-0-----------|-0-----------|-0-----------------------|
Repeat x times until fade out
E---------7---8---7^8^75--7---52--0-|
B---------0---0------------0----------|
G-----0-------------------------------|
D-------------------------------------|
A-------------------------------------|
E-0-----------------------------------|

ارجو ان تنال اعجابك وان تتقن عزفها قريبا




الرجوع الى أعلى الصفحة اذهب الى الأسفل
معاينة صفحة البيانات الشخصي للعضو
sine_bi
مشرف منتدى كوردات ونوتات القيتار


ذكر
عدد الرسائل : 555
العمر : 31
البلد : المغرب
الوظيفة : هههههه
علم بلدك :
المزاج :
اوسمة :
تاريخ التسجيل : 02/04/2008

مُساهمةموضوع: رد: طلبات كوردات الاغاني العربية والغربية   الأحد يوليو 06, 2008 2:11 pm

la tab dir liha copier w coller f fichier world
الرجوع الى أعلى الصفحة اذهب الى الأسفل
معاينة صفحة البيانات الشخصي للعضو
هاميرو
قيتارة جديد
قيتارة  جديد


عدد الرسائل : 3
العمر : 22
تاريخ التسجيل : 01/11/2008

مُساهمةموضوع: رد: طلبات كوردات الاغاني العربية والغربية   السبت نوفمبر 01, 2008 3:29 pm

نوتة قصاد عيني لعمرو ذياب
الرجوع الى أعلى الصفحة اذهب الى الأسفل
معاينة صفحة البيانات الشخصي للعضو
nono_85
قيتارة جديد
قيتارة  جديد


عدد الرسائل : 16
العمر : 31
تاريخ التسجيل : 09/11/2008

مُساهمةموضوع: رد: طلبات كوردات الاغاني العربية والغربية   الأحد نوفمبر 09, 2008 11:54 pm

ممكن بليييييييييييييز كوردات أغنيه تامر حسني ميحرمنيييش منك
بلييييييييييييييييييييييييييييييييييييييييييييز
وثاانكس
الرجوع الى أعلى الصفحة اذهب الى الأسفل
معاينة صفحة البيانات الشخصي للعضو
loomy
قيتارة جديد
قيتارة  جديد


انثى
عدد الرسائل : 10
العمر : 31
البلد : algeria
الوظيفة : étudiante
علم بلدك :
المزاج :
تاريخ التسجيل : 10/11/2008

مُساهمةموضوع: رد: طلبات كوردات الاغاني العربية والغربية   الثلاثاء نوفمبر 11, 2008 7:02 am

السلام عليكم
بليز اخي اريد كوردات كامله لكمال مسعودي اغنية يا حسره عليك يا دنيا
و كوردات سعاد ماسي بعض من اغانيها و اهما اغنية الراوي

ارجو ان تساعدني
الرجوع الى أعلى الصفحة اذهب الى الأسفل
معاينة صفحة البيانات الشخصي للعضو
adelwahed99
قيتارة جديد
قيتارة  جديد


عدد الرسائل : 10
العمر : 33
تاريخ التسجيل : 13/06/2008

مُساهمةموضوع: رد: طلبات كوردات الاغاني العربية والغربية   الإثنين يناير 05, 2009 5:18 pm

ممكن اغنية(لهيثم شاكر- حسام حبيب) ؟؟
الرجوع الى أعلى الصفحة اذهب الى الأسفل
معاينة صفحة البيانات الشخصي للعضو
tla667
قيتارة جديد
قيتارة  جديد


ذكر
عدد الرسائل : 5
العمر : 30
المزاج :
تاريخ التسجيل : 27/12/2008

مُساهمةموضوع: رد: طلبات كوردات الاغاني العربية والغربية   الإثنين يناير 12, 2009 6:23 am

السلام عليك
انا بغيت تاب وكوردات -- انا مش عارف اتغير -- لتامر حسني
الرجوع الى أعلى الصفحة اذهب الى الأسفل
معاينة صفحة البيانات الشخصي للعضو
sailor
قيتارة جديد
قيتارة  جديد


عدد الرسائل : 5
العمر : 45
تاريخ التسجيل : 22/01/2009

مُساهمةموضوع: رد: طلبات كوردات الاغاني العربية والغربية   السبت يناير 24, 2009 8:48 pm

الاخ العزيز مشرف المنتدى
ممكن كوردات "ياواد يااسكندرانى" مصطفى قمر
الرجوع الى أعلى الصفحة اذهب الى الأسفل
معاينة صفحة البيانات الشخصي للعضو
houssain Xp
قيتارة فعال
قيتارة  فعال


ذكر
عدد الرسائل : 65
العمر : 24
البلد : Maroc
علم بلدك :
تاريخ التسجيل : 24/11/2009

مُساهمةموضوع: رد: طلبات كوردات الاغاني العربية والغربية   الأربعاء ديسمبر 23, 2009 11:51 am

السلام عليكم
ممكن كورد اغنية للمبتدئين مع رابط لها لأستمع لها
+
الرجوع الى أعلى الصفحة اذهب الى الأسفل
معاينة صفحة البيانات الشخصي للعضو
aaaaaa222
قيتارة جديد
قيتارة  جديد


عدد الرسائل : 3
العمر : 31
تاريخ التسجيل : 09/07/2010

مُساهمةموضوع: رد: طلبات كوردات الاغاني العربية والغربية   الجمعة أغسطس 06, 2010 1:17 pm

شكرا
الرجوع الى أعلى الصفحة اذهب الى الأسفل
معاينة صفحة البيانات الشخصي للعضو
mans.farah
قيتارة جديد
قيتارة  جديد


عدد الرسائل : 2
العمر : 19
تاريخ التسجيل : 17/04/2014

مُساهمةموضوع: رد: طلبات كوردات الاغاني العربية والغربية   الثلاثاء أبريل 22, 2014 2:10 pm

allah ya moulena ness el ghiwen guitare svp
الرجوع الى أعلى الصفحة اذهب الى الأسفل
معاينة صفحة البيانات الشخصي للعضو
 
طلبات كوردات الاغاني العربية والغربية
استعرض الموضوع السابق استعرض الموضوع التالي الرجوع الى أعلى الصفحة 
صفحة 2 من اصل 2انتقل الى الصفحة : الصفحة السابقة  1, 2

صلاحيات هذا المنتدى:لاتستطيع الرد على المواضيع في هذا المنتدى
منتدى قيتارة :: قسم القيتار :: كوردات القيتار ونوتات القيتار-
انتقل الى: