دروس+القيتار+ و+نوتات+و+فديو+غيتار+كوردات+تعليم
 
الرئيسيةس .و .جبحـثالتسجيلالمجموعاتدخول

شاطر | 
 

 طلبات كوردات الاغاني العربية والغربية

استعرض الموضوع السابق استعرض الموضوع التالي اذهب الى الأسفل 
انتقل الى الصفحة : 1, 2  الصفحة التالية
كاتب الموضوعرسالة
sine_bi
مشرف منتدى كوردات ونوتات القيتار


ذكر
عدد الرسائل : 555
العمر : 31
البلد : المغرب
الوظيفة : هههههه
علم بلدك :
المزاج :
اوسمة :
تاريخ التسجيل : 02/04/2008

مُساهمةموضوع: طلبات كوردات الاغاني العربية والغربية   الجمعة مايو 30, 2008 10:26 am

[من يريد كوردات اية اغنية فليترك طلبه هنا ان شاء الله في اقل من 24 ساعة سيحصل على ما يريد
الرجوع الى أعلى الصفحة اذهب الى الأسفل
معاينة صفحة البيانات الشخصي للعضو
monalisa
مراقبة عامة
مراقبة عامة


عدد الرسائل : 1296
تاريخ التسجيل : 10/09/2007

مُساهمةموضوع: رد: طلبات كوردات الاغاني العربية والغربية   الأحد يونيو 01, 2008 2:43 pm

ممكن كوردات اغنيه جنفير لوبز

aint it funny
الرجوع الى أعلى الصفحة اذهب الى الأسفل
معاينة صفحة البيانات الشخصي للعضو
روميو
قيتارة نشيط
قيتارة  نشيط


عدد الرسائل : 275
العمر : 36
تاريخ التسجيل : 31/05/2008

مُساهمةموضوع: رد: طلبات كوردات الاغاني العربية والغربية   الأربعاء يونيو 04, 2008 3:46 pm

اغنيه torture
shakira
الرجوع الى أعلى الصفحة اذهب الى الأسفل
معاينة صفحة البيانات الشخصي للعضو
le guitariste
قيتارة جديد
قيتارة  جديد


عدد الرسائل : 2
العمر : 29
تاريخ التسجيل : 06/06/2008

مُساهمةموضوع: رد: طلبات كوردات الاغاني العربية والغربية   السبت يونيو 07, 2008 4:17 am

Orido ila kan momkin kordaaaaaaaaaaat oghniyya gharbiyya .........(graham nash .....oghniyyatoho .......(prison song).............ok ........merci
الرجوع الى أعلى الصفحة اذهب الى الأسفل
معاينة صفحة البيانات الشخصي للعضو
janfaljan
قيتارة جديد
قيتارة  جديد


عدد الرسائل : 5
العمر : 32
تاريخ التسجيل : 19/12/2007

مُساهمةموضوع: رد: طلبات كوردات الاغاني العربية والغربية   الجمعة يونيو 13, 2008 1:15 pm

السلام
كوردات اغنية لاموني اللي غاروا مني
بليز
الرجوع الى أعلى الصفحة اذهب الى الأسفل
معاينة صفحة البيانات الشخصي للعضو
رويد رائد
قيتارة جديد
قيتارة  جديد


عدد الرسائل : 15
العمر : 28
تاريخ التسجيل : 22/06/2008

مُساهمةموضوع: رد: طلبات كوردات الاغاني العربية والغربية   الأحد يونيو 22, 2008 9:50 am

مرحبا اخي انا رويد من العراق اريد كوردات backstreet boys واغاني الهام المدفعي رجاءا ومشكور مقدما
الرجوع الى أعلى الصفحة اذهب الى الأسفل
معاينة صفحة البيانات الشخصي للعضو
sine_bi
مشرف منتدى كوردات ونوتات القيتار


ذكر
عدد الرسائل : 555
العمر : 31
البلد : المغرب
الوظيفة : هههههه
علم بلدك :
المزاج :
اوسمة :
تاريخ التسجيل : 02/04/2008

مُساهمةموضوع: رد: طلبات كوردات الاغاني العربية والغربية   الإثنين يونيو 23, 2008 3:26 pm

monalisa كتب:
ممكن كوردات اغنيه جنفير لوبز

aint it funny


/ Jennifer Lopez / J.Lo (2001) / Ain't It Funny guitar tab

1st intro: D* D# F* D# D*
2nd intro: Gm Cm7 Gm D/A

verse:
Gm Cm F Bb
It seemed to be like the perfect thing for you and me
Gm Cm F Bb
It's so ironic you're what I pictured you to be
Gm Cm F Bb
But there are facts in our lives we can never change
Gm Cm D/A
Just tell me that you understand and feel the same

Gm Cm F Bb
This perfect romance that I've created in my mind
Gm Cm F Bb
I'd live a thousand lives each one with you right by my side
Gm Cm F Bb
But yet we find ourselves in a less than perfect circumstance
Gm Cm D/A
And so it seems like we'll never have the chance

chorus:
Gm Cm7
Ain't it funny how some feelings you just can't deny
D Gm
And you can't move on even though you try
Gm Cm7
Ain't it strange when you're feeling things you shouldn't feel
D
Oh, I wish this could be real
Gm Cm7
Ain't it funny how a moment could just change your life
D Gm
And you don't want to face what's wrong or right
Gm Cm7
Ain't it strange how fate can play a part
D
In the story of your heart

verse:
Gm Cm F Bb
Sometimes I think that a true love can never be
Gm Cm F Bb
I just believe that somehow it wasn't meant for me
Gm Cm F Bb
Life can be cruel in a way that I can't explain
Gm Cm D/A
And I don't think that I could face it all again

Gm Cm F Bb
I barely know you but somehow I know what you're about
Gm Cm F Bb
A deeper love I've found in you and I no longer doubt
Gm Cm F Bb
You've touched my heart and it altered every plan I've made
Gm Cm D/A
And now I feel that I don't have to be afraid

Neutral chorus, to bridge

bridge:
Cm7 Gm D
I locked away my heart but you just set it free
Gm Cm7
Emotions I felt held me back from what my life should be
Gm D/A
I pushed you far away and yet you stayed with me
D/A
I guess this means that you and me were meant to be

Neutral 1st intro, then Neutral chorus x4 and fade to end

----------
-----
STANDARD TUNING (EADGBE)
CHORDS USED:

D* = X57775
D# = X68886
D/A = 55777X
F* = X8(10)(10)(10)8
Gm = 355333
Cm7 = X35343
D = XX0232
Cm = X35X4X
F = 1332XX
الرجوع الى أعلى الصفحة اذهب الى الأسفل
معاينة صفحة البيانات الشخصي للعضو
sine_bi
مشرف منتدى كوردات ونوتات القيتار


ذكر
عدد الرسائل : 555
العمر : 31
البلد : المغرب
الوظيفة : هههههه
علم بلدك :
المزاج :
اوسمة :
تاريخ التسجيل : 02/04/2008

مُساهمةموضوع: رد: طلبات كوردات الاغاني العربية والغربية   الإثنين يونيو 23, 2008 3:30 pm

le guitariste كتب:
Orido ila kan momkin kordaaaaaaaaaaat oghniyya gharbiyya .........(graham nash .....oghniyyatoho .......(prison song).............ok ........merci
marhaba


Prison Song

written and performed by Graham Nash
from "Wild Tales", 1973
transcribed by Peter Eybert


[Capo 3]

Am
One day a friend took me aside
Dm
and said, "I have to leave you.
Am
For buying something from a friend
Em E7
They say I have done wrong.
Am
For protecting the name of a man
Dm7
they say I'll have to leave you.
Am Em Dm7 Am
So now I'm bidding you farewell for much too long.

Am Dm7
And here's a song to sing for every man inside.
Am Em E7
If he can hear you sing it's an open door.
Am Dm7
There's not a rich man there who couldn't pay his way
Am Em Dm7 Am
and buy the freedom, that's a high price for the poor.

Am(9) Dm7(6) Am(9) Em E7
Kids in Texas, smoking grass, ten year sentence, comes to pass.
Am(9) Dm7(6) Am(9) Em E7
Misdemeanor in Ann Arbor, ask the judges why?

Am
Another friend said to her kids
Dm
I'm gonna have to leave you
Am
For selling something to the man
Em E7
I guess I did wrong.
Am
And although I did the best I could
Dm7
I'm gonna have to leave you.
Am Em Dm7 Am
So now I'm kissing you farewell for much too long.

Am Dm7
And here's a song to sing for every man inside.
Am Em E7
If he can hear you sing it's an open door.
Am Dm7
There's not a rich man there who couldn't pay his way
Am Em Dm7 Am7
and buy the freedom, that's a high price for the poor.
الرجوع الى أعلى الصفحة اذهب الى الأسفل
معاينة صفحة البيانات الشخصي للعضو
sine_bi
مشرف منتدى كوردات ونوتات القيتار


ذكر
عدد الرسائل : 555
العمر : 31
البلد : المغرب
الوظيفة : هههههه
علم بلدك :
المزاج :
اوسمة :
تاريخ التسجيل : 02/04/2008

مُساهمةموضوع: رد: طلبات كوردات الاغاني العربية والغربية   الإثنين يونيو 23, 2008 3:32 pm

رويد رائد كتب:
مرحبا اخي انا رويد من العراق اريد كوردات backstreet boys واغاني الهام المدفعي رجاءا ومشكور مقدما


المرجو تحديد اسم الاغنية وشكرا
الرجوع الى أعلى الصفحة اذهب الى الأسفل
معاينة صفحة البيانات الشخصي للعضو
sine_bi
مشرف منتدى كوردات ونوتات القيتار


ذكر
عدد الرسائل : 555
العمر : 31
البلد : المغرب
الوظيفة : هههههه
علم بلدك :
المزاج :
اوسمة :
تاريخ التسجيل : 02/04/2008

مُساهمةموضوع: رد: طلبات كوردات الاغاني العربية والغربية   الإثنين يونيو 23, 2008 3:39 pm

روميو كتب:
اغنيه torture
shakira


اهلا ها ما طلبته قد حظر اخي

La Tortura


Shakira



Am
Ay payita mía
GC
Guárdate la poesía
D
Guárdate la alegría pa'ti
Intro: Am G C D (2X)
Am
No pido que todos los días sean de sol
FE7
No pido que todos los viernes sean de fiesta
Am
Tampoco te pido que vuelvas rogando perdón
F
Si lloras con los ojos secos
E7
Y hablando de ella
DmE7
Ay amor me duele tanto
Am
Me duele tanto
A7
Que te fueras sin decir a donde
Dm
Ay amor,
E7
fue una tortura
Am
perderte
GC
Yo se que no he sido un santo
DAm
Pero lo puedo arreglar amor
GC
No solo de pan vive el hombre
DAm
Y no de excusas vivo yo.
GC
Solo de errores se aprende
DmAm
Y hoy se que tuyo es mi corazón
G
Mejor te guardas
C
todo eso
A otro perro
Dm
con ese hueso
Am
Y nos decimos adiós
Am
No puedo pedir que el invierno perdone a un rosal
FE7
No puedo pedir a los olmos que entreguen peras
Am
No puedo pedirle lo eterno a un simple mortal
FE7
Y andar arrojando a los cerdos miles de perlas
DmE7
Ay amor me duele tanto
Am
Me duele tanto
A7
Que no creas más en mis promesas
Dm
Ay amor

E7
Es una tortura
Am
Perderte!
Repete refrão :
Yo se que no he sido un santo
(Y es que no estoy hecho de cartón)
Am
No te bajes, no te bajes
Oye negrita mira, no te rajes
De lunes a viernes tienes mi amor
Déjame el sábado a mi que es mejor
Oye mi negra no me castigues más
Porque allá afuera sin ti no tengo paz
Yo solo soy un hombre muy arrepentido
Soy como el ave que vuelve a su nido
Repete refrão:
GC
Yo se que no he sido un santo
DmAm
(Y es que no estoy hecho de cartón)
GC
Ay ay ay,
DmAmG
Ay ay ay,
CDmAm
Ay, todo lo que he hecho por ti
GC
Fue una tortura perderte
DmAm
Me duele tanto que sea asi
GC
Sigue llorando perdón
DmAmG
Yo... yo no voy
CDmAm
A llorar por ti...
A llorar por ti!
END



variations - click chord images

الرجوع الى أعلى الصفحة اذهب الى الأسفل
معاينة صفحة البيانات الشخصي للعضو
روميو
قيتارة نشيط
قيتارة  نشيط


عدد الرسائل : 275
العمر : 36
تاريخ التسجيل : 31/05/2008

مُساهمةموضوع: رد: طلبات كوردات الاغاني العربية والغربية   الثلاثاء يونيو 24, 2008 3:02 am

اغنيه
sway
micheal buble

لو امكن


اكون شاكر مرتين
الرجوع الى أعلى الصفحة اذهب الى الأسفل
معاينة صفحة البيانات الشخصي للعضو
loco del flamenco
مشرف فن الفلامنكو


ذكر
عدد الرسائل : 1225
العمر : 96
البلد : viva España
المزاج : flamenco en mi sangre
المزاج :
اوسمة :
تاريخ التسجيل : 23/10/2007

مُساهمةموضوع: رد: طلبات كوردات الاغاني العربية والغربية   الثلاثاء يونيو 24, 2008 9:28 am

momkin oghniyat no tengo lugar li yasmin levy
الرجوع الى أعلى الصفحة اذهب الى الأسفل
معاينة صفحة البيانات الشخصي للعضو
sine_bi
مشرف منتدى كوردات ونوتات القيتار


ذكر
عدد الرسائل : 555
العمر : 31
البلد : المغرب
الوظيفة : هههههه
علم بلدك :
المزاج :
اوسمة :
تاريخ التسجيل : 02/04/2008

مُساهمةموضوع: رد: طلبات كوردات الاغاني العربية والغربية   الثلاثاء يونيو 24, 2008 2:26 pm

روميو كتب:
اغنيه
sway
micheal buble

لو امكن


اكون شاكر مرتين

مرحبا اخي وهذا هو طلبك

Intro:A--A--Dm--Dm x2 Gm
When marimba rhythms start to play
Gm Dm
Dance with me, make me sway
Dm Gm
Like a lazy ocean hugs the shore
A Dm
Hold me close, sway me more


Gm
Like a flower bending in the breeze
Gm Dm
Bend with me, sway with ease
Dm Gm
When we dance you have a way with me
A Dm
Stay with me, sway with me


C
Other dancers may be on the floor
C F
But my eyes will see only you
F A
Only you have that magic technique
A Dm Dm Dm B B B A
When we sway I go weeeeeeeeaaaaaaaaak


Gm
I can hear the sounds of violins
Gm Dm
Long before it begins
Dm Gm
Make me thrill as only you know how
A Dm
Sway me smooth, sway me now


-Repeat last two lines then continue:

Gm
You know how
A Dm
Sway me smooth, sway me now
الرجوع الى أعلى الصفحة اذهب الى الأسفل
معاينة صفحة البيانات الشخصي للعضو
karim
قيتارة نشيط
قيتارة  نشيط


عدد الرسائل : 440
العمر : 35
تاريخ التسجيل : 24/11/2007

مُساهمةموضوع: رد: طلبات كوردات الاغاني العربية والغربية   الأربعاء يونيو 25, 2008 7:45 am

ممكن اغنيه تيطانيك

celine dion
الرجوع الى أعلى الصفحة اذهب الى الأسفل
معاينة صفحة البيانات الشخصي للعضو
sine_bi
مشرف منتدى كوردات ونوتات القيتار


ذكر
عدد الرسائل : 555
العمر : 31
البلد : المغرب
الوظيفة : هههههه
علم بلدك :
المزاج :
اوسمة :
تاريخ التسجيل : 02/04/2008

مُساهمةموضوع: رد: طلبات كوردات الاغاني العربية والغربية   الأربعاء يونيو 25, 2008 1:18 pm

andy كتب:
momkin oghniyat no tengo lugar li yasmin levy

lilassaf akhi j'ai pas trouver ta demande desoler
الرجوع الى أعلى الصفحة اذهب الى الأسفل
معاينة صفحة البيانات الشخصي للعضو
sine_bi
مشرف منتدى كوردات ونوتات القيتار


ذكر
عدد الرسائل : 555
العمر : 31
البلد : المغرب
الوظيفة : هههههه
علم بلدك :
المزاج :
اوسمة :
تاريخ التسجيل : 02/04/2008

مُساهمةموضوع: رد: طلبات كوردات الاغاني العربية والغربية   الأربعاء يونيو 25, 2008 1:39 pm

karim كتب:
ممكن اغنيه تيطانيك

celine dion


bonjour mon pote

Titanic
Céline Dion

اخي عليك ان تستمع الى الاغنية جيدا حتى تتمكن من عزفها

E||------|------------------0h-1--|--0-----0----3---------------|
B||------|--1--3--3--5------1-----|----3-1---3---------3-5-3-1--|
G||------|--2---------------2-----|----------0------------------|
D||------|--2---------------2-----|----------0------------------|
A||------|--0---------------0-----|-----------------------------|
E||------|------------------------|----------3------------------|



----------------------|------------------0--1--|--0-----0----3------0--3--|
----------------------|--1--3--3/-5------1-----|----3-1---3---------------|
--2------4-2-0--------|--2---------------2-----|----------0---------------|
--3----------0--------|--2---------------2-----|----------0---------------|
--3----------2--------|--0---------------0-----|--------------------------|
-------------3--------|------------------------|----------3---------------|



--5----------3-5-3--0--|-------------------||---------------------------|
--6--------------------|--3----------------||---1--------1--1-----1-----|
--5--------------------|--0----------------||*--0-----0-----------------|
--3--------------------|--0----------------||*--2--2-----------2-----2--|
--3--------------------|-------------------||---3-----------------------|
-----------------------|--3----------------||---------------------------|



--------------------------|--------------------------|
--0-----1--------1--1-----|--0-----1--------1--3-----|
--0-----------0--------0--|--0-----------0-----------|
--0--0-----0--------------|--3--3-----3-----------0--|
--------------------------|--------------------------|
--3-----------------------|--1-----------------------|



--0--------0--------------|--------------------------|
--1-----1-----3--------3--|--1--------1--1-----1-----|
--0--0--------0-----0-----|--2-----2--2--2-----2-----|
--------------0--0--------|--2--2-----------2-----2--|
--3-----------------------|--0-----------------------|
--------------3-----------|--------------------------|



--------------------------|--------------------------|
--0--------1--------3-----|--------------------------|
--0-----0--0-----0--0-----|--0-----0--------0-----0--|
--2--2--------2--------2--|--3--3--------3-----3-----|
--------------------------|--3--------3--------------|
--0-----------------------|--1--------1--------------|



---------------------------||---------------------------|
-----------------------0---||---1--------1--------1-----|
--0-----0--------0--2-----*||*--2-----2--2-----2--2--2--|
--0--0--------0-----------*||*--2--2-----2--2-----2-----|
--2--------2---------------||---0--------0--------0-----|
--3--------3---------------||---------------------------|



--------------------------|--3--------1--------0--1-0-|
--3--------3--------------|--1-----1--1-----1--1------|
--0-----0--0-----0--0-----|--2--2-----2--2-----2------|
--0--0-----0--0--------0--|--3--------3--------3------|
--------------------------|---------------------------|
--3--------3--------------|---------------------------|



--------------0-----1-----|--0--------0--------------|
--3--------3-----3-----0--|--1-----1-----3-----1-----|
--0-----0--0--------------|--2--2-----------2-----2--|
--0--0--------------------|--------------------------|
--------------------------|--0-----------------------|
--3-----------------------|--------------------------|



---------------------------|---------------------------|
--0--------1--------0--1-0-|---------------------------|
--------0--------0---------|--2--------2--------2--4-2-|
-----0--------0------------|--3-----3--------3---------|
---------------------------|--3--3--------3------------|
--3------------------------|--1--------1---------------|



---------------------------||--------------------------|
---------------------------||--0--------1--------0-----|
--0--------0--------------*||--------0--------0--------|
--2-----2-----3-----0--3--*||-----0--------0--------0--|
--2--2-----------0---------||--------------------------|
--3-----------1------------||--3-----------------------|



--------------------------|--0--------0---------------|------------------0--1--|
--0--------1--------3-----|--1-----1-----3--------1-0-|--1--3--3/-5------1-----|
--------0--------0--------|--0--0--------0-----0------|--2---------------2-----|
-----3--------3--------0--|--------------0--0---------|--2---------------2-----|
--------------------------|--3------------------------|--0---------------0-----|
--1-----------------------|--------------3------------|------------------------|



--0-----0----3------0--3--|--5----------3-5-3--0--|-------------------|
----3-1---3---------------|--6--------------------|--3----------------|
----------0---------------|--5--------------------|--0----------------|
----------0---------------|--3--------------------|--0----------------|
--------------------------|--3--------------------|-------------------|
----------3---------------|-----------------------|--3----------------|



|---------------------------|--------------------------|
|---1--------1--1-----1-----|--0-----1--------1--1-----|
|*--0-----0--0--0-----0-----|--0-----0-----0--0--0--0--|
|*--2--2-----------2-----2--|--0--0-----0--------------|
|---3-----------------------|--------------------------|
|---------------------------|--3-----------------------|



--------------------------|--0--------0--------------|
--0-----1--------1--3-----|--1-----1-----3--------3--|
--0-----0-----0--0--0-----|--0--0--------0-----0-----|
--3--3-----3-----------0--|--------------0--0--------|
--------------------------|--3-----------------------|
--1-----------------------|--------------3-----------|



--------------------------|--------------------------|
--1--------1--1-----1-----|--0--------1--------3-----|
--2-----2--2--2-----2-----|--0-----0--0-----0--0-----|
--2--2-----------2-----2--|--2--2--------2--------2--|
--0-----------------------|--------------------------|
--------------------------|--0-----------------------|



--------------------------|---------------------------||
--------------------------|-----------------------0---||
--0-----0--------0-----0--|--0-----0--------0--2-----*||
--3--3--------3-----3-----|--0--0--------0-----------*||
--3--------3--------------|--2--------2---------------||
--1--------1--------------|--3--------3---------------||



---------------------------|--------------------------|
---1--------1--------1-----|--3--------3--------------|
*--2-----2--2-----2--2--2--|--0-----0--0-----0--0-----|
*--2--2-----2--2-----2-----|--0--0-----0--0--------0--|
---0--------0--------0-----|--------------------------|
---------------------------|--3--------3--------------|



--3--------1--------0--1-0-|--------------0-----1-----|
--1-----1--1-----1--1------|--3--------3-----3-----0--|
--2--2-----2--2-----2------|--0-----0--0--------------|
--3--------3--------3------|--0--0--------------------|
---------------------------|--------------------------|
---------------------------|--3-----------------------|



--0--------0--------------|---------------------------|
--1-----1-----3-----1-----|--0--------1--------0--1-0-|
--2--2-----------2-----2--|--------0--------0---------|
--------------------------|-----0--------0------------|
--0-----------------------|---------------------------|
--------------------------|--3------------------------|



---------------------------|---------------------------||
---------------------------|---------------------------||
--2--------2--------2--4-2-|--0--------0--------------*||
--3-----3--------3---------|--2-----2-----3-----0--3--*||
--3--3--------3------------|--2--2-----------0---------||
--1--------1---------------|--3-----------1------------||



--------------------------|--------------------------|
--0--------1--------0-----|--0--------1--------3-----|
--------0--------0--------|--------0--------0--------|
-----0--------0--------0--|-----3--------3--------0--|
--------------------------|--------------------------|
--3-----------------------|--1-----------------------|



--0--------0---------------|------------------0--1--|
--1-----1-----3--------1-0-|--1--3--3/-5------1-----|
--0--0--------0-----0------|--2---------------2-----|
--------------0--0---------|--2---------------2-----|
--3------------------------|--0---------------0-----|
--------------3------------|------------------------|



--0-----0----3---------------|----------------------|------------------0--1--|
----3-1---3---------3-5-3-1--|----------------------|--1--3--3/-5------1-----|
----------0------------------|--2------4-2-0--------|--2---------------2-----|
----------0------------------|--3----------0--------|--2---------------2-----|
-----------------------------|--3----------2--------|--0---------------0-----|
----------3------------------|-------------3--------|------------------------|



--0-----0----3------0--3--|--5------5--7--------|--8--------10--------|
----3-1---3---------------|--6---------8--------|--6--------8---------|
----------0---------------|--5---------7--------|--5--------7---------|
----------0---------------|--3---------5--------|--5--------0---------|
--------------------------|--3---------5--------|---------------------|
----------3---------------|---------------------|---------------------|



|---0----------0-----0-----|--2----------2----------|--7--------5--------4-----|
|---2-------2--2-----2-----|--4-------4--4----------|--5-----5--5-----5--5-----|
|*--1----1-----1--1--1--1--|--4----4-----4--4--4----|--6--6-----6--6-----6--6--|
|*--2----------------------|--4----------4----------|--7--------7--------7-----|
|---4----------------------|------------------------|--------------------------|
|--------------------------|------------------------|--------------------------|



--2--------4--------5-----|--4-----------------------|
--4-----4--------4-----4--|--5-----5--7--------5-----|
--4--4--------4-----------|--6--6-----------6--------|
--4-----------------------|--6-----------6--------6--|
--------------------------|--------------------------|
--------------------------|--------------------------|



--------------------------|--------------------------|
--4--------5--------4-----|--2--------2-----------2--|
--4-----4--------4--------|--2-----2-----2-----2-----|
--4--4--------4--------4--|--2--2-----------2--------|
--2-----------------------|--4-----------------------|
--------------------------|--------------------------|



--------11b-11--11r-11--9--7---||--------------------2-----|
--4--9-------------------------||--4--------5--------------|
--4---------------------------*||--4-----4--------4-----4--|
--6---------------------------*||--2--2--------2-----------|
--6----------------------------||--0-----------------------|
--4----------------------------||--------------------------|



--4--------2--------|--0----2--4-2-0--------|--------------------|
--5--------5--------|--0-----------0--------|--------------------|
--4--------4--------|--4-----------4--------|--------------------|
--2--------4--------|--2-----------2--------|--4--------2--------|
--2--------2--------|--0-----------2--------|--2--------2--------|
--------------------|--------------0--------|--0--------0--------|



------------------||
------------------||
------------------||
------------------||
------------------||
------------------||
الرجوع الى أعلى الصفحة اذهب الى الأسفل
معاينة صفحة البيانات الشخصي للعضو
josémas
قيتارة جديد
قيتارة  جديد


عدد الرسائل : 3
العمر : 30
تاريخ التسجيل : 25/06/2008

مُساهمةموضوع: رد: طلبات كوردات الاغاني العربية والغربية   الخميس يونيو 26, 2008 4:14 am

السلام عليكم
أنا أبحث عن أغاني الشعبي الجزائري التي و الله مفقودة على النت
الرجوع الى أعلى الصفحة اذهب الى الأسفل
معاينة صفحة البيانات الشخصي للعضو
josémas
قيتارة جديد
قيتارة  جديد


عدد الرسائل : 3
العمر : 30
تاريخ التسجيل : 25/06/2008

مُساهمةموضوع: رد: طلبات كوردات الاغاني العربية والغربية   الخميس يونيو 26, 2008 4:58 am

من فضلكم أغاني شعبي
الرجوع الى أعلى الصفحة اذهب الى الأسفل
معاينة صفحة البيانات الشخصي للعضو
sine_bi
مشرف منتدى كوردات ونوتات القيتار


ذكر
عدد الرسائل : 555
العمر : 31
البلد : المغرب
الوظيفة : هههههه
علم بلدك :
المزاج :
اوسمة :
تاريخ التسجيل : 02/04/2008

مُساهمةموضوع: رد: طلبات كوردات الاغاني العربية والغربية   الخميس يونيو 26, 2008 3:57 pm

josémas كتب:
من فضلكم أغاني شعبي

انظر اخي ادا كنت تريد كوردات على شكل tablature guitare pro
ارسل لي ايمايلك اخي حتى اتمكن من ارساله الك
الرجوع الى أعلى الصفحة اذهب الى الأسفل
معاينة صفحة البيانات الشخصي للعضو
kazo
قيتارة جديد
قيتارة  جديد


ذكر
عدد الرسائل : 11
العمر : 22
البلد : هولندا
علم بلدك :
المزاج :
تاريخ التسجيل : 26/06/2008

مُساهمةموضوع: رد: طلبات كوردات الاغاني العربية والغربية   الجمعة يونيو 27, 2008 2:25 am

مرحبا ممكن كوردات اغنية hello gjghsfh
الرجوع الى أعلى الصفحة اذهب الى الأسفل
معاينة صفحة البيانات الشخصي للعضو
sine_bi
مشرف منتدى كوردات ونوتات القيتار


ذكر
عدد الرسائل : 555
العمر : 31
البلد : المغرب
الوظيفة : هههههه
علم بلدك :
المزاج :
اوسمة :
تاريخ التسجيل : 02/04/2008

مُساهمةموضوع: رد: طلبات كوردات الاغاني العربية والغربية   الجمعة يونيو 27, 2008 1:48 pm

kazo كتب:
مرحبا ممكن كوردات اغنية hello gjghsfh

مرحبا بك اخي وهذا هو طلبك
Phone Ringtone:
Richie Lionel - Hello




Hello









I have somethings to say previously: I borrow the chords from


I used a special notation that deserves a remark:

As usual, I used / to denote sliding, but I also used // to denote it.
The difference is that N/M slides immediately to M, while N//M lets N
sound (the required time) and then slides to M.

| Am G6 | FM7 G6 FM7 |
| Am G6 | FM7 G6 FM7 |


Am G6 FM7 G6 FM7
I've been alone with you inside my mind
Am G6 FM7 G6 FM7
And in my dreams I've kissed your lips a thousand times
Am G6 FM7 G6 FM7
I sometimes see you pass outside my door


Am G6 FM7 A
Hello, is it me you're looking for?
Dm G C F
I can see it in your eyes, I can see it in your smile
Bb E Am E7/B Am/C E7/B
You're all I've ever wanted and my arms are open wide
Dm G C F
'Cause you know just what to say and you know just what to do
Bb Am/E E Am G6
And I want to tell you so much, I love you

| FM7 G6 FM7 |
| Am G6 | FM7 G6 FM7 |


Am G6 FM7 G6 FM7
I long to see the sunlight in your hair
Am G6 FM7 G6 FM7
And tell you time and time again, how much I care
Am G6 FM7 G6 FM7
Sometimes I feel my heart will overflow

Am G6 FM7 A
Hello, I've just got to let you know
Dm G C F
'Cause I wonder where you are and I wonder what you do
Bb E Am E7/B Am/C E7/B
Are you somewhere feeling lonely or is someone loving you?
Dm G C F
Tell me how to win your heart for I haven't got a clue
Bb Am/E E Am G6
But let me start by say - ing, I love you
| FM7 G6 FM7 |
| Am G6 | FM7 G6 FM7

Solo
| Am G6 | FM7 G6 FM7 |
E----|-------------0--1-----0------------------|---------------------5----|
B----|----0--1--3--------3-----1//3--0-----1p0-|----3/5--3------3/5-----5-|
G----|-2---------------------------------------|-2------------------------|
D--2-|-----------------------------------------|--------------------------|
A----|-----------------------------------------|--------------------------|
E----|-----------------------------------------|--------------------------|

Am G6 | FM7 G6 FM7 |
E--7--8--5--7-----5---------------|---------------------3---------8-|
B--------------8-----5---3/5--3/5-|-3/5//3---------3/5-----3--------|
G------------------------2/4--2/4-|-3/4//2--5---5-------------------|
D---------------------------------|---------------------------------|
A---------------------------------|---------------------------------|
E---------------------------------|---------------------------------|

Am G6 | FM7 G6 FM7 |
E--10/12--13--12----8/10--12--10---8p7-|-8p7------------------------5----|
B--------------------------------------|------10--10/8/10------3/5-----5-|
G--------------------------------------|---------------------------------|
D--------------------------------------|---------------------------------|
A--------------------------------------|---------------------------------|
E--------------------------------------|---------------------------------|

Am G6 | FM7 A | Dm
E---7--8--5--7-----5---------|--------------------------------9--12-|-10----
B---------------8-----5------|----------------------------10--------|-------
G----------------------------|-------------------------9------------|-------
D----------------------------|---------------------11---------------|-------
A----------------------------|--------------------------------------|-------
E----------------------------|--------------------------------------|-------
Hello, is it me you're looking for? 'Cause I wonder
G C F
where you are and I wonder what you do
Bb E Am E7/B Am/C E7/B
Are you somewhere feeling lonely or is someone loving you?
Dm G C F
Tell me how to win your heart for I haven't got a clue
Bb Am/E E Am G6But let me start by say - ing, I love you


| FM7 G F | A |
الرجوع الى أعلى الصفحة اذهب الى الأسفل
معاينة صفحة البيانات الشخصي للعضو
sine_bi
مشرف منتدى كوردات ونوتات القيتار


ذكر
عدد الرسائل : 555
العمر : 31
البلد : المغرب
الوظيفة : هههههه
علم بلدك :
المزاج :
اوسمة :
تاريخ التسجيل : 02/04/2008

مُساهمةموضوع: رد: طلبات كوردات الاغاني العربية والغربية   الأحد يونيو 29, 2008 4:51 am

ولا كلمة شكر
الرجوع الى أعلى الصفحة اذهب الى الأسفل
معاينة صفحة البيانات الشخصي للعضو
azed
قيتارة جديد
قيتارة  جديد


ذكر
عدد الرسائل : 12
العمر : 25
البلد : morocco
علم بلدك :
المزاج :
تاريخ التسجيل : 29/06/2008

مُساهمةموضوع: رد: طلبات كوردات الاغاني العربية والغربية   الأحد يونيو 29, 2008 9:41 pm

momkine aghani lilmoubtadi2ine bn;lgjlghl
الرجوع الى أعلى الصفحة اذهب الى الأسفل
معاينة صفحة البيانات الشخصي للعضو
kazo
قيتارة جديد
قيتارة  جديد


ذكر
عدد الرسائل : 11
العمر : 22
البلد : هولندا
علم بلدك :
المزاج :
تاريخ التسجيل : 26/06/2008

مُساهمةموضوع: رد: طلبات كوردات الاغاني العربية والغربية   الإثنين يونيو 30, 2008 8:15 am

مشكوووووووووووووووور اخي على الكوردات مال hello
الرجوع الى أعلى الصفحة اذهب الى الأسفل
معاينة صفحة البيانات الشخصي للعضو
sine_bi
مشرف منتدى كوردات ونوتات القيتار


ذكر
عدد الرسائل : 555
العمر : 31
البلد : المغرب
الوظيفة : هههههه
علم بلدك :
المزاج :
اوسمة :
تاريخ التسجيل : 02/04/2008

مُساهمةموضوع: رد: طلبات كوردات الاغاني العربية والغربية   الإثنين يونيو 30, 2008 3:53 pm

azed كتب:
momkine aghani lilmoubtadi2ine bn;lgjlghl

مرحبا اخي الكريم غذا انشاء الله ستحصل على مرادك

حاول مع هذه اخي وانتظر مني المزيد


E|-------|---------|-----------|-----------|---------|---------|---------|---1-0---|-----------|
B|---1---|-----1---|-----------|-----------|-----1---|---------|-----1---|-------1-|-----------|
G|-2---2-|-2-3---2-|-2-3-2-0-2-|-2-3-2-0---|-------2-|---2-0-0-|---2---2-|-2-------|-2-3-2-0-2-|
D|-------|---------|-----------|---------3-|-3-3-----|---------|---------|---------|-----------|
A|-------|---------|-----------|-----------|---------|-3-------|-3-------|---------|-----------|
E|-------|---------|-----------|-----------|---------|---------|---------|---------|-----------|

E|-----------|---------|---------|
B|-----1-----|-----1---|---------|
G|-2-3---3-2-|-------2-|---2-0---|
D|-----------|-3-3-----|-------3-|
A|-----------|---------|-3-------|
E|-----------|---------|---------|


refrain

E|-------------|-----------1-|-------|-1-1-0-0-----------|---------|-------------|-----------1-|
B|---1-------1-|-------------|---1---|---------3-3-1-1---|---------|---1-------1-|-------------|
G|-2---2-0-2---|-2-3-2-0-2---|-2---2-|-----------------2-|-2-0-----|-2---2-0-2---|-2-3-2-0-2---|
D|-------------|-------------|-------|-------------------|-----3-3-|-------------|-------------|
A|-------------|-------------|-------|-------------------|---------|-------------|-------------|
E|-------------|-------------|-------|-------------------|---------|-------------|-------------|

E|-------|-1-1-0-0-----------|---------|-5-|-------1-|-1-1-1-----|-------1-|
B|---1---|---------3-3-1-1---|---------|---|-3-1-3---|-------3-1-|-3-1-3---|
G|-2---2-|-----------------2-|-0-0-----|---|---------|-----------|---------|
D|-------|-------------------|-----3-3-|---|---------|-----------|---------|
A|-------|-------------------|---------|---|---------|-----------|---------|
E|-------|-------------------|---------|---|---------|-----------|---------|


couplet

E|-------|---------|-----------|-------------|---------|-------|---------|---1-0---|-----------|
B|---1---|-----1---|-----------|-------------|-----1---|-------|-----1---|-------1-|-----------|
G|-2---2-|-2-3---2-|-2-3-2-0-2-|-2-2-3-2-0---|-------2-|-2-0-0-|---2---2-|-2-------|-2-3-2-0-2-|
D|-------|---------|-----------|-----------3-|-3-3-----|-------|---------|---------|-----------|
A|-------|---------|-----------|-------------|---------|-------|-3-------|---------|-----------|
E|-------|---------|-----------|-------------|---------|-------|---------|---------|-----------|

E|-------------|---------|-------|
B|-------1-----|-----1---|-------|
G|-0-2-3---3-2-|-------2-|-2-0---|
D|-------------|-3-3-----|-----3-|
A|-------------|---------|-------|
E|-------------|---------|-------|


refrain

E|-------------|-----------1-|-------|-1-1-0-0-----------|---------|-------------|-----------1-|
B|---1-------1-|-------------|---1---|---------3-3-1-1---|---------|---1-------1-|-------------|
G|-2---2-0-2---|-2-3-2-0-2---|-2---2-|-----------------2-|-2-0-----|-2---2-0-2---|-2-3-2-0-2---|
D|-------------|-------------|-------|-------------------|-----3-3-|-------------|-------------|
A|-------------|-------------|-------|-------------------|---------|-------------|-------------|
E|-------------|-------------|-------|-------------------|---------|-------------|-------------|

E|-------|-1-1-0-0-----------|---------|-5-|-------1-|-1-1-1-----|-------1-|-------------|-------1-|
B|---1---|---------3-3-1-1---|---------|---|-3-1-3---|-------3-1-|-3-1-3---|-------------|-3-1-3---|
G|-2---2-|-----------------2-|-0-0-----|---|---------|-----------|---------|-----------2-|---------|
D|-------|-------------------|-----3-3-|---|---------|-----------|---------|-0-3-0-3-3---|---------|
A|-------|-------------------|---------|---|---------|-----------|---------|-------------|---------|
E|-------|-------------------|---------|---|---------|-----------|---------|-------------|---------|

E|-------------|-------1-|------------|
B|---1-3-1-----|-3-1-3---|------------|
G|-2-------3-2-|---------|---2-0-0----|
D|-------------|---------|--------3-3-|
A|-------------|---------|-3----------|
E|-------------|---------|------------|




عدل سابقا من قبل sine_bi في الإثنين يونيو 30, 2008 4:38 pm عدل 1 مرات
الرجوع الى أعلى الصفحة اذهب الى الأسفل
معاينة صفحة البيانات الشخصي للعضو
 
طلبات كوردات الاغاني العربية والغربية
استعرض الموضوع السابق استعرض الموضوع التالي الرجوع الى أعلى الصفحة 
صفحة 1 من اصل 2انتقل الى الصفحة : 1, 2  الصفحة التالية

صلاحيات هذا المنتدى:لاتستطيع الرد على المواضيع في هذا المنتدى
منتدى قيتارة :: قسم القيتار :: كوردات القيتار ونوتات القيتار-
انتقل الى: