دروس+القيتار+ و+نوتات+و+فديو+غيتار+كوردات+تعليم
 
الرئيسيةس .و .جبحـثالتسجيلالمجموعاتدخول

شاطر | 
 

 تاب هوتل كاليفرونيا

استعرض الموضوع السابق استعرض الموضوع التالي اذهب الى الأسفل 
كاتب الموضوعرسالة
guitar22hassan
قيتارة جديد
قيتارة  جديد


عدد الرسائل : 31
العمر : 33
تاريخ التسجيل : 31/03/2008

مُساهمةموضوع: تاب هوتل كاليفرونيا   الجمعة مايو 02, 2008 4:17 pm

ممكن تاب وليس نوته اوكورد لهوتل كاليفرونيا لجورج مايكل وشكرا اتمنى الرد
الرجوع الى أعلى الصفحة اذهب الى الأسفل
معاينة صفحة البيانات الشخصي للعضو
mohamigo003
مشرف منتدى فديو القيتار


ذكر
عدد الرسائل : 303
العمر : 28
الوظيفة : طالب جامعي
اوسمة :
تاريخ التسجيل : 03/04/2008

مُساهمةموضوع: رد: تاب هوتل كاليفرونيا   الأحد مايو 04, 2008 6:10 pm

الرجوع الى أعلى الصفحة اذهب الى الأسفل
معاينة صفحة البيانات الشخصي للعضو
mohamigo003
مشرف منتدى فديو القيتار


ذكر
عدد الرسائل : 303
العمر : 28
الوظيفة : طالب جامعي
اوسمة :
تاريخ التسجيل : 03/04/2008

مُساهمةموضوع: hotel california ارجو النقل   الأحد مايو 04, 2008 6:19 pm

اتفضل اخي الكريم
وان ما عجبتك الاولى هاك الثانية
ان شاء الله تكون مبسوط






[color:1fa3=#000]

hotel california
eagles

E|--------------------7--10--12--|------9----------9----------| I
B|--7-----7-----7----------------|--11-----11-------------11--| N
G|--7--7-----------7-----7---9---|--11---------11-----11------| T
D|--9--------9-------------------|--8-------------------------| R
A|--9----------------------------|----------------------------| O
E|--7----------------------------|----------------------------|

E|--5-----5--5--7--5--------5--7--7-----|-----7-----7--------7--|
B|-----5-----------------5-----------7--|--7-----------7--------|
G|--------------------------------------|--7-----7--------7-----|
D|--7-----------------7--------7--------|-----------------------|
A|--------------------------------------|-----------------------|
E|--------------------------------------|-----------------------|

E|-----7-----7--------7-------------10--|
B|--8-----------8--------8--10^h12------|
G|--7-----7--------7--------------------|
D|--9-----------------------------------|
A|--------------------------------------|
E|--------------------------------------|

E|------10----------10----------10----------10------|
B|--10------------------------------10----------11--|
G|----------11--11------11--11----------------------|
D|--------------------------------------12----------|
A|--------------------------------------------------|
E|--------------------------------------------------|

E|-----7-----7--------7--7---------|------9------9----------9--|
B|--------------8--8--------8------|----------------11---------|
G|--9-----9--------------------9---|--11-----11---------11-----|
D|---------------------------------|---------------------------|
A|-----------------------------10--|--9------------------------|
E|---------------------------------|---------------------------|

E|--7--7-----10--------7--7-----------|------9----------9----------|
B|--7-----7------7--7--------7--------|--11-----11-------------11--|
G|--7---------------------------7^h9--|--11---------11-----11------|
D|--9--------9------------------------|--8-------------------------|
A|--9---------------------------------|----------------------------|
E|--7---------------------------------|----------------------------|

E|--5-----5--5--7--5--------5--7--7-----|--------------------7--|
B|-----5-----------------5-----------7--|--7--7-----------------|
G|--------------------------------------|--7-----7-----7--------|
D|--7-----------------7--------7--------|--9--------9-----9-----|
A|--------------------------------------|-----------------------|
E|--------------------------------------|-----------------------|

E|-----7-----7--------7-------------10--|
B|--8-----------8--------8--10^h12------|
G|--7-----7--------7--------------------|
D|--9-----------------------------------|
A|--------------------------------------|
E|--------------------------------------|

E|------10----------10------------------------------|
B|--10--------------------------10----------10------|
G|----------11--11------11--11------11--------------|
D|--------------------------------------12------12--|
A|--------------------------------------------------|
E|--------------------------------------------------|

E|-----7-----7--------7--7---------|------9------9----------9--|
B|--------------8--8--------8------|----------------11---------|
G|--9-----9--------------------9---|--11-----11---------11-----|
D|---------------------------------|---------------------------|
A|-----------------------------10--|--9------------------------|
E|---------------------------------|---------------------------|

(The INTRO is now repeated as the first half of verse 1 before the
chords take over)

SOLO
~~~~~~
E|-----------------7--|--9b(10)-----------------------------|
B|----------7^h10-----|----------------~~-------------------|
G|--9b(11)------------|----------9^h11^p9--7--9--9b(11)--7--|
D|--------------------|-------------------------------------|
A|--------------------|-------------------------------------|
E|--------------------|-------------------------------------|

E|---------------------------------|
B|---------------------------------|
G|----~~~----------------~~~-------|
D|--7b(Cool--9--9^p8^p7--7b(8)r(7)\--|
A|---------------------------------|
E|---------------------------------|

E|---------------------------------------------------------|
B|---------------------------------------------------------|
G|--7--9--9b(11)--7-------~~--7--9--9b(11)--7--------------|
D|-------------------9^p8^h9-------------------9^p7^h9^p7--|
A|---------------------------------------------------------|
E|---------------------------------------------------------|

E|-----------7--10--7-------------~~~~~--7-----10b(12)^^^
B|--10b(12)------------10^p7^h10--8b(9)-----7-----------|
G|------------------------------------------------------|
D|------------------------------------------------------|
A|------------------------------------------------------|
E|------------------------------------------------------|

.
E|^^--10--10b(12)r(10)--7---------------10--------------(10)X--(10)X--|
B|-------------------------10--10b(12)------(12)r10--8----------------|
G|--------------------------------------------------------------------|
D|--------------------------------------------------------------------|
A|--------------------------------------------------------------------|
E|--------------------------------------------------------------------|

E|----------10------------------------|
B|------------------------------~-----|
G|--9b(11)------(11)r9^p7--7/6--7--7^^^
D|------------------------------------|
A|------------------------------------|
E|------------------------------------|

E|---------------------------------------------------------------------|
B|---------------------------------------- PH --------------------~--|
G|^h9/12--11b(12)r11--9------9--11b(12)--11b(12)--11b(12)r11--9--7--9--|
D|-----------------------12--------------------------------------------|
A|---------------------------------------------------------------------|
E|---------------------------------------------------------------------|

E|-------------------------7-------------------|
B|----------7--10-------------7--------~~~~~~--|
G|--9b(11)---------9b(11)--------9^p7--9b(11)--|
D|---------------------------------------------|
A|---------------------------------------------|
E|---------------------------------------------|

E|-------------------------7----------7---------------------------------|
B|----------7--10------------------------7----------7-------------------|
G|--9b(11)---------9b(11)-----9b(11)--------9b(11)-----(11)r9^p7^h9^p7--|
D|----------------------------------------------------------------------|
A|----------------------------------------------------------------------|
E|----------------------------------------------------------------------|

E|----------------|--------------------------------------------------|
B|--~~~~~~--(7)/--|--9b(10)(then release 1/4)-----7------------------|
G|--9b(11)--------|----------------------------9-----7(bend up 1/4)--|
D|----------------|--------------------------------------------------|
A|----------------|--------------------------------------------------|
E|----------------|--------------------------------------------------|

E|--------------------------7------------------10----------------------|
B|-----10b(12)r10--10b(12)-----10^p7--10b(12)------10--12--11--10--9/--|
G|---------------------------------------------------------------------|
D|--9------------------------------------------------------------------|
A|---------------------------------------------------------------------|
E|---------------------------------------------------------------------|

E|-------------------12---------------17-----------------------|
B|-----------12--15------15--17b(19)------(19)r17--15--17--15--|
G|--14b(16)----------------------------------------------------|
D|-------------------------------------------------------------|
A|-------------------------------------------------------------|
E|-------------------------------------------------------------|

E|-----------14--16--17--17b(19)-----------~~--------------|
B|--17b(19)-----------------------(19)r17--15--17--17^p15--|
G|---------------------------------------------------------|
D|---------------------------------------------------------|
A|---------------------------------------------------------|
E|---------------------------------------------------------|

E|-----------17--17-----------~~~~~~~-------------------|
B|--17b(19)----------(19)r17--17b(19)--(19)r17^p15^h17--|
G|------------------------------------------------------|
D|------------------------------------------------------|
A|------------------------------------------------------|
E|------------------------------------------------------|

E|-----------17--17-----------~~~~~~~--14^^^^^^^^--17b(19)^^|
B|--17b(19)----------(19)r17--17b(19)-----------------------|
G|-------------------------------------19^p18^p16-----------|
D|----------------------------------------------------------|
A|----------------------------------------------------------|
E|----------------------------------------------------------|

E|^^(19)--------------------------------------------|------|
B|-----------------12-----------12------------------|--~~--|
G|--------15b(16)------15b(16)----------------------|--15--|
D|-----------------------------------16\12----------|------|
A|------------------------------------------14--13--|------|
E|--------------------------------------------------|------|

(bend from 12 to 14 and release gradually over the next 9 notes so that
the tenth is an E at the 12'th fret)

E|--12b(14)r(14)r(14)r(14)r(14)r(13)r(13)r(13)r(13)r12--12^p10------12--10--|
B|--------------------------------------------------------------12----------|
G|--------------------------------------------------------------------------|
D|--------------------------------------------------------------------------|
A|--------------------------------------------------------------------------|
E|--------------------------------------------------------------------------|

E|----------------------------------------------------|
B|--12--10----------------------------10\-------------|
G|----------(11)r9------9------9--11-------7--9b(11)--|
D|------------------12-----12-------------------------|
A|----------------------------------------------------|
E|----------------------------------------------------|

E|-----------------------------------------------------------|
B|--15^p12--14^p10--12^p8--10^p7--8--------------------------|
G|--------------------------------7--------------------------|
D|--16^p12--14^p11--12^p9--11^p7--9--0^h4-----------------0--|
A|-----------------------------------------5^h7^p5-----------|
E|--------------------------------------------------5^h7-----|

~~ ~~ ~~
E|--14--12^p10--10^p9--10-~--|--~--~--~~--~~--|--~~--9---10--12--|
B|--15--10^^^^---------7--7--|--8--8--10--12--|--11--11--12--14--|
G|--14--11^^^^--11^p9--7--7--|--9--9--11--12--|--11--------------|
D|---------------------------|----------------|------------------|
A|---------------------------|----------------|------------------|
E|---------------------------|----------------|------------------|

E|--14--10------14--10------14--10------14--10------14--10-------|
B|--12--12--12--12--12--12--12--12--12--12--12--12--12--12--12\--|
G|---------------------------------------------------------------|
D|---------------------------------------------------------------|
A|---------------------------------------------------------------|
E|---------------------------------------------------------------|
~~
E|--12--9-------12--9-------12--9---18--|
B|--11--11--11--11--11--11--11--11--19--|
G|--------------------------------------|
D|--------------------------------------|
A|--------------------------------------|
E|--------------------------------------|

E|--12--9-------12--9-------12--9-------12--9-------12--9--------|
B|--10--10--10--10--10--10--10--10--10--10--10--10--10--10--10\--|
G|---------------------------------------------------------------|
D|---------------------------------------------------------------|
A|---------------------------------------------------------------|
E|---------------------------------------------------------------|
~~
  

1/2
</FONT>
الرجوع الى أعلى الصفحة اذهب الى الأسفل
معاينة صفحة البيانات الشخصي للعضو
mohamigo003
مشرف منتدى فديو القيتار


ذكر
عدد الرسائل : 303
العمر : 28
الوظيفة : طالب جامعي
اوسمة :
تاريخ التسجيل : 03/04/2008

مُساهمةموضوع: رد: تاب هوتل كاليفرونيا   الأحد مايو 04, 2008 6:20 pm

الجزء2
<!--StartFragment-->E|--10--7-----10--7-----10--7--16--|
B|--9---9--9--9---9--9--9---9--17--|
G|---------------------------------|
D|---------------------------------|
A|---------------------------------|
E|---------------------------------|

E|--10--7-----10--7-----10--7-----10--7-----10--7-----|
B|--8---8--8--8---8--8--8---8--8--8---8--8--8---8--8--|
G|----------------------------------------------------|
D|----------------------------------------------------|
A|----------------------------------------------------|
E|----------------------------------------------------|
~~
E|--10--5-----10--5-----10--5--14--|
B|--7---7--7--7---7--7--7---7--15--|
G|---------------------------------|
D|---------------------------------|
A|---------------------------------|
E|---------------------------------|

E|-----------------------------------------------------|
B|--12--8-----12--8-----12--8-----12--8-----12--8------|
G|--9---9--9--9---9--9--9---9--9--9---9--9--9---9--9\--|
D|-----------------------------------------------------|
A|-----------------------------------------------------|
E|-----------------------------------------------------|

E|----------------------------------~~--|
B|--14--11------14--11------14--11--14--|
G|--11--11--11--11--11--11--11--11--14--|
D|--------------------------------------|
A|--------------------------------------|
E|--------------------------------------| (fade....)
E|--14--10------14--10------14--10------14--10------14--10-------|
B|--12--12--12--12--12--12--12--12--12--12--12--12--12--12--12\--|
G|---------------------------------------------------------------|
D|---------------------------------------------------------------|
A|---------------------------------------------------------------|
E|---------------------------------------------------------------|
~~
E|--12--9-------12--9-------12--9---18--|
B|--11--11--11--11--11--11--11--11--19--|
G|--------------------------------------|
D|--------------------------------------|
A|--------------------------------------|
E|--------------------------------------|

E|--12--9-------12--9-------12--9-------12--9-------12--9--------|
B|--10--10--10--10--10--10--10--10--10--10--10--10--10--10--10\--|
G|---------------------------------------------------------------|
D|---------------------------------------------------------------|
A|---------------------------------------------------------------|
E|---------------------------------------------------------------|
~~
E|--10--7-----10--7-----10--7--16--|
B|--9---9--9--9---9--9--9---9--17--|
G|---------------------------------|
D|---------------------------------|
A|---------------------------------|
E|---------------------------------|

E|--10--7-----10--7-----10--7-----10--7-----10--7-----|
B|--8---8--8--8---8--8--8---8--8--8---8--8--8---8--8--|
G|----------------------------------------------------|
D|----------------------------------------------------|
A|----------------------------------------------------|
E|----------------------------------------------------|
~~
E|--10--5-----10--5-----10--5--14--|
B|--7---7--7--7---7--7--7---7--15--|
G|---------------------------------|
D|---------------------------------|
A|---------------------------------|
E|---------------------------------|

E|-----------------------------------------------------|
B|--12--8-----12--8-----12--8-----12--8-----12--8------|
G|--9---9--9--9---9--9--9---9--9--9---9--9--9---9--9\--|
D|-----------------------------------------------------|
A|-----------------------------------------------------|
E|-----------------------------------------------------|

E|----------------------------------~~--|
B|--14--11------14--11------14--11--14--|
G|--11--11--11--11--11--11--11--11--14--|
D|--------------------------------------|
A|--------------------------------------|
E|--------------------------------------|

--

Hotel N2:

============================================================================
but you can never leave...

------------|-------------------------------|-------------------|
------10/12-|-h15-10-12--------------7------|-------------------|
-4/11-------|-----------10\9-----7-9----7h8-|------4/7\4--------|
------------|-------------------------------|-8-----------7h8\4-|
------------|-------------------------------|-------------------|
------------|-------------------------------|-------------------|

------------------------------------|------?----------------------7---10h12-|
--------7---------------7-----------|-10h12--10h12h10\7-10-8h9------7-------|
----7/9---7h8-------7/9---7h8-------|---------------------------------------|
---x----------9\8-9-----------9\8-9-|---------------------------------------|
--x---------------------------------|---------------------------------------|
-x----------------------------------|---------------------------------------|

---10-(10)-12po10\7-------10-----------------|------10---------------------|
--------------------10h12----(10)-12h10\8-x--|-----------------------------|
---------------------------------------------|-9h11----9h11po9-7-7\6-7-----|
-------------------------------------------x-|-----------------------------|
---------------------------------------------|-----------------------------|
---------------------------------------------|-----------------------------|

-----------------------------------------------|
-----7h8-(7)-8po7-------7h8-(7)h8-(7)h8po7-----|
-7/9--------------9\7-9--------------------9\7-|
-----------------------------------------------|
-----------------------------------------------|
-----------------------------------------------|

------------------7---------------------|
------7-10------7-----------------------|
-9h11------9h11-----(9)h11po9\7-9h11----|
----------------------------------------|
----------------------------------------|
----------------------------------------|

------------------7------7-7---------------|
------7-10------7--------7-7---------------|
-9h11------9h11-----9h11-----9h11po9\7-9\7-|
-------------------------------------------|
-------------------------------------------|
-------------------------------------------|

---------------|------------------------------------------|
---------------|----7h10po7-5-7--------10h12-(10)h12-10-7-|
-11/19---------|--x-------------7h8-----------------------|
---------------|-x------------------9---------------------|
---------------|x-----------------------------------------|
---------------|------------------------------------------|

-------10---------------------|--------------12----------------|
-10/12----10-12-11-10-9/17----|-----12-15h16----15-17\15-17\15-|
----------------------------14|h16-----------------------------|
------------------------------|--------------------------------|
------------------------------|--------------------------------|
------------------------------|--------------------------------|

-------15-16-17-17h19-----------------------------|
-17/19----------------(17)h19po17-15----17--17\15-|
--------------------------------------------------|
--------------------------------------------------|
--------------------------------------------------|
--------------------------------------------------|

--------17-17------------------------------|
-17h19--------(17)h19po17-15-----17--17\15-|
-------------------------------------------|
-------------------------------------------|
-------------------------------------------|
-------------------------------------------|

--------17-17-------------------------------------|
-17h19--------(17)h19p17-(17)h19---(17)h19po17-15-|
--------------------------------------------------|
--------------------------------------------------|
--------------------------------------------------|
--------------------------------------------------|

------17-17---------------------------------------||
-? ?--------(17)h19po17-(17)h19----(17)h19po17\15-||
--------------------------------------------------||
--------------------------------------------------||
--------------------------------------------------||
--------------------------------------------------||

-----------------10-------10----------|---------------------|
-14h15-----13h15----13h15-------------|---11----------------|
-----------------------------11\7-----|---------------------|
----------------------------------9-8-|---------------------|
--------------------------------------|---------------------|
--------------------------------------|---------------------|

------------------------------------------------------------------------
-17h19--(17)h19-(17)h18-(17)h18-(17)h18-(17)h18-(17)h18po17-(17)h18po17-
------------------------------------------------------------------------
------------------------------------------------------------------------
------------------------------------------------------------------------
------------------------------------------------------------------------

-------------------------|---------------------------------|
-17-17-17\15----17-15/16-|---------------------------------|
-------------16----------|-16-----14-----------------14--?-|
-------------------------|-----------16\14\12-14/16--------|
-------------------------|---------------------------------|

-7--------------------------------|----7----------------------------|
---7-10---7-----------------------|------10-------------------------|
--------9---7-9---7---------------|---------11-(9)h11po9-7--------7-|
----------------9-----7-----------|-7-------------------------------|
--------------------9---9\7-5-7/9-|---------------------------------|
----------------------------------|---------------------------------|

---------------------|------------------9---|
---------------------|---------11-12--------|
-9-----9--11-----12--|-11-------------------|
---------------------|----------------------|
---------------------|----------------------|
---------------------|----------------------|

Now the rest of this is the ending repeat section:

-10\7---10\7---10\7---10\7---10\7-----|
------7------7------7------7------7\5-|
--------------------------------------|
--------------------------------------|
--------------------------------------|
--------------------------------------|

-9\6---9\6---9\6-12/14---------|-9\5---9\5---9\5---9\5---9\5-------|
-----7-----7-------------------|-----5-----5-----5-----5-----5-----|
-------------------------------|-----------------------------------|
-------------------------------|-----------------------------------|
-------------------------------|-----------------------------------|
-------------------------------|-----------------------------------|

-7\4---7\4---7\4---10/12--------|-7\3---7\3---7\3---7\3---7\3----|
-----5-----5-----5--------------|-----3-----3-----3-----3-----3--|
--------------------------------|--------------------------------|
--------------------------------|--------------------------------|
--------------------------------|--------------------------------|
--------------------------------|--------------------------------|

-5\2---5\2---5\2--8/10-------|-3\0---3\0---3\0---3\0---3\0---|
-----3-----3-----------------|-----0-----0-----0-----0-----0-|
-----------------------------|-------------------------------|
-----------------------------|-------------------------------|
-----------------------------|-------------------------------|
-----------------------------|-------------------------------|

-6\2---6\2---6\2--7/9-------------|
-----2-----2----------------------|
----------------------------------| and repeat this last section to fade
----------------------------------|
2/2
الرجوع الى أعلى الصفحة اذهب الى الأسفل
معاينة صفحة البيانات الشخصي للعضو
احمد جيتار
قيتارة نشيط
قيتارة  نشيط


ذكر
عدد الرسائل : 105
العمر : 26
علم بلدك :
المزاج :
تاريخ التسجيل : 15/03/2008

مُساهمةموضوع: رد: تاب هوتل كاليفرونيا   الإثنين يوليو 14, 2008 7:34 am

مجهود كبيييييير جداااا شكراااااا ليك يا باشا
الرجوع الى أعلى الصفحة اذهب الى الأسفل
معاينة صفحة البيانات الشخصي للعضو
sine_bi
مشرف منتدى كوردات ونوتات القيتار


ذكر
عدد الرسائل : 555
العمر : 31
البلد : المغرب
الوظيفة : هههههه
علم بلدك :
المزاج :
اوسمة :
تاريخ التسجيل : 02/04/2008

مُساهمةموضوع: رد: تاب هوتل كاليفرونيا   الثلاثاء يوليو 15, 2008 2:15 pm

شكرا
الرجوع الى أعلى الصفحة اذهب الى الأسفل
معاينة صفحة البيانات الشخصي للعضو
mario zegnoti
قيتارة فعال
قيتارة  فعال


ذكر
عدد الرسائل : 95
العمر : 30
البلد : العراق
الوظيفة : مهندس
علم بلدك :
تاريخ التسجيل : 19/10/2008

مُساهمةموضوع: رد: تاب هوتل كاليفرونيا   الجمعة أكتوبر 24, 2008 4:13 pm

عاشت الايادي





hkh hkh hkh hkh
الرجوع الى أعلى الصفحة اذهب الى الأسفل
معاينة صفحة البيانات الشخصي للعضو
 
تاب هوتل كاليفرونيا
استعرض الموضوع السابق استعرض الموضوع التالي الرجوع الى أعلى الصفحة 
صفحة 1 من اصل 1

صلاحيات هذا المنتدى:لاتستطيع الرد على المواضيع في هذا المنتدى
منتدى قيتارة :: قسم القيتار :: كوردات القيتار ونوتات القيتار-
انتقل الى: