دروس+القيتار+ و+نوتات+و+فديو+غيتار+كوردات+تعليم
 
الرئيسيةس .و .جبحـثالتسجيلالمجموعاتدخول

شاطر | 
 

 كوردات اغاني جبسي كينغ gipsy kings

استعرض الموضوع السابق استعرض الموضوع التالي اذهب الى الأسفل 
كاتب الموضوعرسالة
monalisa
مراقبة عامة
مراقبة عامة


عدد الرسائل : 1296
تاريخ التسجيل : 10/09/2007

مُساهمةموضوع: كوردات اغاني جبسي كينغ gipsy kings   الأربعاء سبتمبر 26, 2007 5:24 pm

Baila Me


BAILA ME

(Capo on 3rd fret)

Intro (play 4 times)

--------------------------------
--------------------------------
--------------------------------
---------------------5--4------
5-----------------5--------5---
---7--3-----3--7--------------7

G
Cuando se marea el dolore

D7
Cuando se quema de amore

Cuando se marea su vela

G
Cuando se llama al doctore

Cuando se marea el dolore

D7
Cuando se quema de amore

Cuando se marea su vela

G
Cuando se es mal el sabore

D7
Baila baila baila, baila baila baila me

G
Esta rumba tan gitana que yo siempre cantaré

Pero lo siempre cantaré

D7
Pero lo siempre cantaré
G
Esta rumba tan gitana que yo siempre cantaré

C
Que sَlo vive a enamorarte

G
Que sَlo vive a enamorarte

D7
Me enamoré de esta gitana

G
Cuando supe que ella bailaba.

CHORDS:

G: 355433
D7: x54535
C: x35553

Full lyrics for Baila Me:

Cuando se marea el dolore
Cuando se quema de amore
Cuando se marea su vela
Cuando se llama al doctore

Cuando se marea el dolore
Cuando se quema de amore
Cuando se marea su vela
Cuando se es mal el sabore

Baila baila baila
Baila baila baila me
Esta rumba tan gitana
Que yo siempre cantaré
Pero lo siempre cantaré
Pero lo siempre cantaré
Esta rumba tan gitana
Que lo siempre cantaré!

Cuando se marea el dolore
Cuando se quema de amore
Cuando se marea su vela
Cuando se va al doctore

Cuando se marea el dolore
Cuando se quema de amore
Cuando se marea su vela
Cuando se paga al doctore

Que sَlo vive a enamorarte
Que sَlo vive a enamorarte
Me enamoré de esta gitana
Cuando supe que ella bailaba!




Bamboleo


Intro:

Riff 1 7x

F#m C#7 F#m
Ese amor llega asي esta manera

C#77 Riff 2
No tiene la culpa

C#7
Caballo de danza vana

Porque es muy depreciado

F#m F#m6(add9) F#m
Por eso no te perdona llorar

F#m C#7 F#m
Ese amor llega asي esta manera

C#7 Riff 2
No tiene la culpa

C#7
Amor de compra y venta

Amor del pasado

Bembele, bembele, bembele,

Bem, bembele, bembele

F#m Bm
Bamboleo, bambolea

C#7
Porque en mi vida

F#m F#m6(add9)
Yo la prefiero vivir asي

F#m6(add9) Bm7
No tiene perdَn de dios

E7
Tْ eres mi vida,

Amaj7
La fortuna del destino

D Bm7
En el destino de desamparado

C#7
Lo mismo que ayer

F#m F#m6(add9)
Lo mismo soy yo

F#m Bm7
No te encuentro a l'abandon

E7 Amaj7
Es imposible no te encuentro de verdad

D Bm
Por eso un dيa no cuento si de nada

C#7
Lo mismo que ayer

F#m F#m6(add9)
Yo pienso en ti

Chorus




A Mi Manera



G(add9) Bm
Yo sé que no vendrلs
G7
Por eso ya

E7
Tanto al olvido

Am Ammaj7
Dejar un nuevo amor

Am7
Tanto mejor

D G
Hay como el mيo

G7
Dejar y la vive

C Am
En este mundo de tristeza

G Am7
Dejar y la vive

D7 C6 G
A mi manera

G7
Yo quiero ser y nada mas

C(add9)
Prefieraré y recordar

Am7
Un nuevo amor

D7 D7sus4
Tanto mejor

D7 Bm7
Quisiera olvidar

Em
Tanto la dejar

Am7
Quisiera vivir

D7 D7sus4
Hay nada mلs

D7 C6 G
O sي my way


Guitar solo:

G Gmaj7
----------------|----------------|----------------|----------------|
----------------|0---------------|----------0-----|----------------|
----------------|----------------|------------2---|4---------------|
---------------0|----------------|------0---------|4---------------|
----------------|----------------|----------------|5---------------|
----------------|----------------|----------------|3---------------|

G7 E7sus4 E7
----------------|----------------|----------------|----------------|
----------------|----------------|----------------|----------------|
----------4p2---|4--------------|------2---4p2---|2-----1----|
------0---------|3---------------|----------------|0---------------|
----------------|5---------------|----------------|2---------------|
----------------|3---------------|----------------|0---------------|

Am Ammaj7
----------------|----------------|----------------|----------------|
------0---------|1---------------|----------1p0---|1-------------|
----------------|----------------|----------------|1---------------|
----------------|2---------------|------2---------|2---------------|
----------------|----------------|----------------|0---------------|
----------------|----------------|----------------|----------------|

Am7 D G
----------------|----------------|----------------|----------------|
----------1p0---|1---------------|----3-----3-----|1h3p1p0---------|
----------------|0---------------|----2-------2---|----------2/4---|
------2---------|2---------------|----4-----------|----------------|
----------------|0---------------|----------------|----------------|
----------------|----------------|----------------|----------------|

G7
----------------|----------------|----------------|----------------|
---------------2|3---------------|------5---3-2---|3---------------|
----------------|----------------|----------------|4---------------|
----------------|----------------|----------------|3---------------|
----------------|----------------|----------------|----------------|
----------------|----------------|----------------|----------------|

C Amsus4 Am
----------------|----------------|----------------|----------------|
----5-------3---|1-----1-----0---|----------1-----|3-----1---------|
----4-----4-----|0---------------|------0---------|2---------------|
----3-----------|2---------------|----2-----------|2---------------|
----------------|----------------|3---------------|0---------------|
3---------------|----------------|----------------|----------------|
G Am
----------------|----------------|----------------|----------------|
--------1-3-1-0-|----------------|----------------|----------------|
----------------|----------------|----------------|----------------|
----------------|----------------|--5-----7/9 9---|----------------|
----------------|----------------|----------------|7---------------|
----------------|----------------|----------------|----------------|

D G
----------------|----------------|----------------|----------------|
----------------|----------------|----------------|----------------|
----------------|----------------|----------------|----------------|
4---------------|5---------------|----------------|----------------|
5---------------|2---------------|----------------|----------------|
----------------|3---------------|----------------|----------------|

G(add9) Bm
Yo sé que no vendrلs

G7
Por eso ya

E7
Tanto al olvido

Am Ammaj7
Dejar un nuevo amor

Am7
Tanto mejor

D G
Hay como el mيo

G7
Dejar y la vive

C Am
En este mundo de tristesa

G Am7
Dejar y la vive

D7 C6 G
A mi manera

G7
Yo quiero ser

Y nada mلs

C(add9)
Prefieraré y recordar

Am7
Un nuevo amor

D7 D7sus4
Tanto mejor

D7 Bm7
Quisiera olvidar

Em
Tanto la dejar

Am7
Quisiera vivir

D7 D7sus4
Hay nada mلs

D7 C6 G
O si my way

Am7
Lo li lo li

D7
Lo li lo li

Bm7
Lo li lo li

Em
Lo li lo li

Am7
Lo li lo li

D7
Lo li lo li

C6 G
O si my way

Repeat the '"lolilo's"


Chords:
Am7 002010
Ammaj7 002110
Gadd9 320033
G7 353433/320001
Bm 224432
E7 020100
C6 032210
D7 x00212
D7sus4 x00213
Bm7 224232
E7sus4 020200
Amsus4 002230
الرجوع الى أعلى الصفحة اذهب الى الأسفل
معاينة صفحة البيانات الشخصي للعضو
loco del flamenco
مشرف فن الفلامنكو


ذكر
عدد الرسائل : 1225
العمر : 96
البلد : viva España
المزاج : flamenco en mi sangre
المزاج :
اوسمة :
تاريخ التسجيل : 23/10/2007

مُساهمةموضوع: رد: كوردات اغاني جبسي كينغ gipsy kings   السبت نوفمبر 03, 2007 6:47 pm

chokran bazaf
الرجوع الى أعلى الصفحة اذهب الى الأسفل
معاينة صفحة البيانات الشخصي للعضو
monalisa
مراقبة عامة
مراقبة عامة


عدد الرسائل : 1296
تاريخ التسجيل : 10/09/2007

مُساهمةموضوع: رد: كوردات اغاني جبسي كينغ gipsy kings   الأحد نوفمبر 04, 2007 3:45 pm

merci bcp
الرجوع الى أعلى الصفحة اذهب الى الأسفل
معاينة صفحة البيانات الشخصي للعضو
Msgitane
قيتارة جديد
قيتارة  جديد


ذكر
عدد الرسائل : 18
العمر : 32
تاريخ التسجيل : 10/12/2007

مُساهمةموضوع: رد: كوردات اغاني جبسي كينغ gipsy kings   الثلاثاء ديسمبر 11, 2007 6:21 am

Un Bon Travail !! à suivre....
الرجوع الى أعلى الصفحة اذهب الى الأسفل
معاينة صفحة البيانات الشخصي للعضو
monalisa
مراقبة عامة
مراقبة عامة


عدد الرسائل : 1296
تاريخ التسجيل : 10/09/2007

مُساهمةموضوع: رد: كوردات اغاني جبسي كينغ gipsy kings   الثلاثاء ديسمبر 11, 2007 2:35 pm

Msgitane كتب:
Un Bon Travail !! à suivre....
شكرا لردودكم نتمنى كل من له كوردات لجبسي يحطها
الرجوع الى أعلى الصفحة اذهب الى الأسفل
معاينة صفحة البيانات الشخصي للعضو
KaKa
قيتارة جديد
قيتارة  جديد


عدد الرسائل : 7
العمر : 24
تاريخ التسجيل : 26/09/2008

مُساهمةموضوع: رد: كوردات اغاني جبسي كينغ gipsy kings   الجمعة سبتمبر 26, 2008 12:01 pm

مشكور على الموضوع و انشاء الله نشوف ابداعتك في مواضيع الاخرى
الرجوع الى أعلى الصفحة اذهب الى الأسفل
معاينة صفحة البيانات الشخصي للعضو
 
كوردات اغاني جبسي كينغ gipsy kings
استعرض الموضوع السابق استعرض الموضوع التالي الرجوع الى أعلى الصفحة 
صفحة 1 من اصل 1
 مواضيع مماثلة
-
» لعبة Age of Empires II: The Age of Kings 1.0

صلاحيات هذا المنتدى:لاتستطيع الرد على المواضيع في هذا المنتدى
منتدى قيتارة :: قسم القيتار :: كوردات القيتار ونوتات القيتار-
انتقل الى: