دروس+القيتار+ و+نوتات+و+فديو+غيتار+كوردات+تعليم
 
الرئيسيةس .و .جبحـثالتسجيلالمجموعاتدخول

شاطر | 
 

 كواردات djobo joba gipsy kings

اذهب الى الأسفل 
كاتب الموضوعرسالة
loco del flamenco
مشرف فن الفلامنكو
avatar

ذكر
عدد الرسائل : 1225
العمر : 98
البلد : viva España
المزاج : flamenco en mi sangre
المزاج :
اوسمة :
تاريخ التسجيل : 23/10/2007

مُساهمةموضوع: كواردات djobo joba gipsy kings   الجمعة مارس 07, 2008 6:27 pm

ACORDES:> F#m Em A7 D G

CEJILLA EN TERCER TRASTE / CAPO ON 3º VERSION CORREGIDA


Intro: F#m Em A7 D

F#m Em A7
||---------------------------------5-5-6---------------------------------
||------5-6-5----5-6-5---8-6-6-6-6------8-8-8-8--------------------------
||---5-7------5-7--------------------------------------------------------
||-----------------------------------------------------------------------
||-----------------------------------------------------------------------
||-----------------------------------------------------------------------

D F#m Em A7 D
||---------------------------------5-5-6---------------------------------
||------5-6-5----5-6-5---8-6-6-6-6------8-8-8-8-8-8----------------------
||---5-7------5-7--------------------------------------------------------
||-----------------------------------------------------------------------
||-----------------------------------------------------------------------
||-----------------------------------------------------------------------


D G
Ay niña

Yo te encuentro
F#m
Solita por la calle
Em
Yo me siento ay 'namorao
A7 D
Yo me siento ay triste y solo

G
Djobi Djoba
F#m
Cada dia te quiero ma'

Djobi Djobi, Djobi Djoba
Em
Cada dia yo te quiero ma'

Djobi Djobi, Djobi Djoba
A7 D
Cada dia yo te quiero ma'

G
Djobi Djoba
F#m
Cada dia te quiero ma'

Djobi Djobi, Djobi Djoba
Em
Cada dia yo te quiero ma'

Djobi Djobi, Djobi Djoba
A7 D
Cada dia yo te quiero ma'

F#m Em A7 D
||---------------------------------5-5-6---------------------------------
||------5-6-5----5-6-5---8-6-6-6-6------8-8-8-8--------------------------
||---5-7------5-7--------------------------------------------------------
||-----------------------------------------------------------------------
||-----------------------------------------------------------------------
||-----------------------------------------------------------------------


D F#m Em A7 D
||---------------------------------5-5-6---------------------------------
||------5-6-5----5-6-5---8-6-6-6-6------8-8-8-8-8-8----------------------
||---5-7------5-7--------------------------------------------------------
||-----------------------------------------------------------------------
||-----------------------------------------------------------------------
||-----------------------------------------------------------------------

D G
Pero me importa

Que la distancia
F#m
Ya nos separe
Em
Yo me contento me de ti
A7
Que no me diga
D
ay Paragua'ya ya yay...

G
Djobi Djoba
F#m
Cada dia te quiero ma'

Djobi Djobi, Djobi Djoba
Em
Cada dia yo te quiero ma'

Djobi Djobi, Djobi Djoba
A7 D
Cada dia yo te quiero ma'
الرجوع الى أعلى الصفحة اذهب الى الأسفل
معاينة صفحة البيانات الشخصي للعضو
 
كواردات djobo joba gipsy kings
الرجوع الى أعلى الصفحة 
صفحة 1 من اصل 1

صلاحيات هذا المنتدى:لاتستطيع الرد على المواضيع في هذا المنتدى
منتدى قيتارة :: قسم القيتار :: كوردات القيتار ونوتات القيتار-
انتقل الى: