دروس+القيتار+ و+نوتات+و+فديو+غيتار+كوردات+تعليم
 
الرئيسيةس .و .جبحـثالتسجيلالمجموعاتدخول

شاطر | 
 

 كواردات gipsy kings hablame

استعرض الموضوع السابق استعرض الموضوع التالي اذهب الى الأسفل 
كاتب الموضوعرسالة
loco del flamenco
مشرف فن الفلامنكو


ذكر
عدد الرسائل : 1225
العمر : 96
البلد : viva España
المزاج : flamenco en mi sangre
المزاج :
اوسمة :
تاريخ التسجيل : 23/10/2007

مُساهمةموضوع: كواردات gipsy kings hablame   الجمعة مارس 07, 2008 6:07 pm

Ebm Bbm

-----------6--------------------------------------------6-----------------
7--6--7------7--6--7-----------------------7--6--7------7--6--7--6--
-------------------------8------------------------------------------------
---------------------------------------------------------------------------
---------------------------------------------------------------------------
---------------------------------------------------------------------------

B F#
----------------------------------------------4---------------------------
-----------9--7--6--7------------------------7--------------------------
4--6--8-----------------8---------------------8-------------------------
-------------------------------------------------9-------------------8----
---------------------------------------------------4-----------------------
--------------------------------------------------------------------------

F#
Habla me

B
Como te camelo yo

F#
Quiere me

B
Como te amo yo

G#m
Es un amor tan clave

C# Bbm
De que amor que yo tenía lo guardaba

Ebm G#m
De que amor que yo tenía lo guardaba

B F#
Es como un final y volver ayer.

F#
Quiere me

B
Como te camino yo

F#
Quiere me

B
Como te amo yo

G#m
Es un amor posible

C# Bbm
De que amor que yo tenía lo guardaba

Ebm G#m
De que amor que yo tenía lo guardaba

B F#
Es como un final y volver ayer.


(intro)

B
Y ya volver a ver

G#m
Que no ya comprenden


C# Bbm
De que amor que yo tenía lo guardaba

Ebm Bbm
De que amor que yo tenía lo guardaba

B F#
Es como un final y a volver ayer.

B
Yo se que volverás

G#m
Y no sentir el amor

C# Bbm
De que amor que yo tenía lo guardaba

Ebm G#m
De que amor que yo tenía lo guardaba

B F#
Es como un final y a volver ayer.



CHORDS:

Ebm: x68876
Bbm: 688666
B: 799877 / 764446
F#: x98676 / x44676
G#m: 466444
C#: x46664
الرجوع الى أعلى الصفحة اذهب الى الأسفل
معاينة صفحة البيانات الشخصي للعضو
 
كواردات gipsy kings hablame
استعرض الموضوع السابق استعرض الموضوع التالي الرجوع الى أعلى الصفحة 
صفحة 1 من اصل 1
 مواضيع مماثلة
-
» لعبة Age of Empires II: The Age of Kings 1.0

صلاحيات هذا المنتدى:لاتستطيع الرد على المواضيع في هذا المنتدى
منتدى قيتارة :: قسم القيتار :: كوردات القيتار ونوتات القيتار-
انتقل الى: