دروس+القيتار+ و+نوتات+و+فديو+غيتار+كوردات+تعليم
 
الرئيسيةس .و .جبحـثالتسجيلالمجموعاتدخول

شاطر | 
 

 تاب مرياتشي لانطونيو بانديراسAntonio Banderas Desperado

استعرض الموضوع السابق استعرض الموضوع التالي اذهب الى الأسفل 
انتقل الى الصفحة : الصفحة السابقة  1, 2, 3 ... 17 ... 32  الصفحة التالية
كاتب الموضوعرسالة
البرجوان
قيتارة جديد
قيتارة  جديد


عدد الرسائل : 31
العمر : 66
احترامك لقوانين المنتدى :
تاريخ التسجيل : 14/02/2008

مُساهمةموضوع: رد: تاب مرياتشي لانطونيو بانديراسAntonio Banderas Desperado   الإثنين مارس 03, 2008 3:10 pm

شكرا
الرجوع الى أعلى الصفحة اذهب الى الأسفل
معاينة صفحة البيانات الشخصي للعضو
stecka9
قيتارة جديد
قيتارة  جديد


عدد الرسائل : 8
العمر : 30
تاريخ التسجيل : 25/01/2008

مُساهمةموضوع: رد: تاب مرياتشي لانطونيو بانديراسAntonio Banderas Desperado   الثلاثاء مارس 04, 2008 6:39 am

thanks
الرجوع الى أعلى الصفحة اذهب الى الأسفل
معاينة صفحة البيانات الشخصي للعضو
sief_12321
قيتارة جديد
قيتارة  جديد


عدد الرسائل : 2
العمر : 31
تاريخ التسجيل : 08/12/2007

مُساهمةموضوع: رد: تاب مرياتشي لانطونيو بانديراسAntonio Banderas Desperado   الثلاثاء مارس 04, 2008 6:24 pm

.جوووووووووووود
الرجوع الى أعلى الصفحة اذهب الى الأسفل
معاينة صفحة البيانات الشخصي للعضو
guitara11
قيتارة جديد
قيتارة  جديد


ذكر
عدد الرسائل : 2
العمر : 30
المزاج :
تاريخ التسجيل : 09/11/2007

مُساهمةموضوع: رد: تاب مرياتشي لانطونيو بانديراسAntonio Banderas Desperado   الخميس مارس 06, 2008 10:32 am

thankssssss
الرجوع الى أعلى الصفحة اذهب الى الأسفل
معاينة صفحة البيانات الشخصي للعضو
karima
قيتارة نشيط
قيتارة  نشيط


عدد الرسائل : 283
العمر : 36
علم بلدك :
تاريخ التسجيل : 10/09/2007

مُساهمةموضوع: رد: تاب مرياتشي لانطونيو بانديراسAntonio Banderas Desperado   الخميس مارس 06, 2008 2:40 pm

لا شكر على واجب


96626
الرجوع الى أعلى الصفحة اذهب الى الأسفل
معاينة صفحة البيانات الشخصي للعضو
3losh
مشرفة منتدى الصور المضحكة


عدد الرسائل : 52
العمر : 24
علم بلدك :
المزاج :
اوسمة :
تاريخ التسجيل : 16/03/2008

مُساهمةموضوع: رد: تاب مرياتشي لانطونيو بانديراسAntonio Banderas Desperado   الأربعاء مارس 19, 2008 3:43 am

thaaaaaaaaaaaaaaaaaaaanx
الرجوع الى أعلى الصفحة اذهب الى الأسفل
معاينة صفحة البيانات الشخصي للعضو
mzlive
قيتارة جديد
قيتارة  جديد


عدد الرسائل : 9
العمر : 36
تاريخ التسجيل : 20/03/2008

مُساهمةموضوع: رد: تاب مرياتشي لانطونيو بانديراسAntonio Banderas Desperado   الخميس مارس 20, 2008 6:33 am

thank'sthank'sthank'sthank'sthank'sthank's
الرجوع الى أعلى الصفحة اذهب الى الأسفل
معاينة صفحة البيانات الشخصي للعضو
roro.mm
قيتارة جديد
قيتارة  جديد


عدد الرسائل : 3
العمر : 37
تاريخ التسجيل : 20/03/2008

مُساهمةموضوع: رد: تاب مرياتشي لانطونيو بانديراسAntonio Banderas Desperado   السبت مارس 22, 2008 1:24 pm

شكرا جدا
الرجوع الى أعلى الصفحة اذهب الى الأسفل
معاينة صفحة البيانات الشخصي للعضو
Meno
قيتارة جديد
قيتارة  جديد


ذكر
عدد الرسائل : 19
العمر : 30
البلد : مصر
الوظيفة : بكالوريوس نظم ملعوامت
المزاج : كويس
علم بلدك :
المزاج :
تاريخ التسجيل : 22/03/2008

مُساهمةموضوع: رد: تاب مرياتشي لانطونيو بانديراسAntonio Banderas Desperado   الأحد مارس 23, 2008 3:01 pm

شكرا كتير
الرجوع الى أعلى الصفحة اذهب الى الأسفل
معاينة صفحة البيانات الشخصي للعضو http://www.meno.350.com
uae4sweet
قيتارة جديد
قيتارة  جديد


عدد الرسائل : 12
العمر : 31
تاريخ التسجيل : 25/03/2008

مُساهمةموضوع: رد: تاب مرياتشي لانطونيو بانديراسAntonio Banderas Desperado   الثلاثاء مارس 25, 2008 6:32 am

مشكووووووووووووووووووووووور
الرجوع الى أعلى الصفحة اذهب الى الأسفل
معاينة صفحة البيانات الشخصي للعضو
Ironi
قيتارة جديد
قيتارة  جديد


عدد الرسائل : 1
العمر : 31
تاريخ التسجيل : 26/03/2008

مُساهمةموضوع: رد: تاب مرياتشي لانطونيو بانديراسAntonio Banderas Desperado   الأربعاء مارس 26, 2008 9:33 am

thank you
الرجوع الى أعلى الصفحة اذهب الى الأسفل
معاينة صفحة البيانات الشخصي للعضو
alifouad
قيتارة جديد
قيتارة  جديد


ذكر
عدد الرسائل : 3
العمر : 29
البلد : مصر
المزاج :
تاريخ التسجيل : 27/03/2008

مُساهمةموضوع: رد: تاب مرياتشي لانطونيو بانديراسAntonio Banderas Desperado   الخميس مارس 27, 2008 10:11 pm

6666 nice work thankssssssssssssssss
الرجوع الى أعلى الصفحة اذهب الى الأسفل
معاينة صفحة البيانات الشخصي للعضو
فايروس
قيتارة جديد
قيتارة  جديد


عدد الرسائل : 2
العمر : 36
تاريخ التسجيل : 04/02/2008

مُساهمةموضوع: رد: تاب مرياتشي لانطونيو بانديراسAntonio Banderas Desperado   الإثنين مارس 31, 2008 3:49 pm

مشكوووور
الرجوع الى أعلى الصفحة اذهب الى الأسفل
معاينة صفحة البيانات الشخصي للعضو
brahim1
قيتارة جديد
قيتارة  جديد


عدد الرسائل : 3
العمر : 31
تاريخ التسجيل : 01/04/2008

مُساهمةموضوع: رد: تاب مرياتشي لانطونيو بانديراسAntonio Banderas Desperado   الثلاثاء أبريل 01, 2008 9:57 am

مشكورون جزيل الشكر
الرجوع الى أعلى الصفحة اذهب الى الأسفل
معاينة صفحة البيانات الشخصي للعضو
yousif_ld85
قيتارة جديد
قيتارة  جديد


عدد الرسائل : 23
تاريخ التسجيل : 22/09/2007

مُساهمةموضوع: رد: تاب مرياتشي لانطونيو بانديراسAntonio Banderas Desperado   الثلاثاء أبريل 01, 2008 12:56 pm

hhhhhhhhhhhhhhhhhhhh
الرجوع الى أعلى الصفحة اذهب الى الأسفل
معاينة صفحة البيانات الشخصي للعضو
lord esp 2004
قيتارة جديد
قيتارة  جديد


عدد الرسائل : 5
العمر : 36
تاريخ التسجيل : 02/04/2008

مُساهمةموضوع: رد: تاب مرياتشي لانطونيو بانديراسAntonio Banderas Desperado   الأربعاء أبريل 02, 2008 10:50 am

thanks
الرجوع الى أعلى الصفحة اذهب الى الأسفل
معاينة صفحة البيانات الشخصي للعضو
arobase
قيتارة جديد
قيتارة  جديد


عدد الرسائل : 4
العمر : 28
تاريخ التسجيل : 03/04/2008

مُساهمةموضوع: رد: تاب مرياتشي لانطونيو بانديراسAntonio Banderas Desperado   الخميس أبريل 03, 2008 4:20 am

مشكووووووور
الرجوع الى أعلى الصفحة اذهب الى الأسفل
معاينة صفحة البيانات الشخصي للعضو
lord esp 2004
قيتارة جديد
قيتارة  جديد


عدد الرسائل : 5
العمر : 36
تاريخ التسجيل : 02/04/2008

مُساهمةموضوع: رد: تاب مرياتشي لانطونيو بانديراسAntonio Banderas Desperado   الجمعة أبريل 04, 2008 5:27 am

thx
الرجوع الى أعلى الصفحة اذهب الى الأسفل
معاينة صفحة البيانات الشخصي للعضو
mohamigo003
مشرف منتدى فديو القيتار


ذكر
عدد الرسائل : 303
العمر : 28
الوظيفة : طالب جامعي
اوسمة :
تاريخ التسجيل : 03/04/2008

مُساهمةموضوع: رد: تاب مرياتشي لانطونيو بانديراسAntonio Banderas Desperado   الجمعة أبريل 04, 2008 9:24 am

ننتظر المزيدmopiez
الرجوع الى أعلى الصفحة اذهب الى الأسفل
معاينة صفحة البيانات الشخصي للعضو
سموووو الاحلام
قيتارة جديد
قيتارة  جديد


عدد الرسائل : 1
العمر : 39
تاريخ التسجيل : 07/04/2008

مُساهمةموضوع: رد: تاب مرياتشي لانطونيو بانديراسAntonio Banderas Desperado   الإثنين أبريل 07, 2008 2:04 am

thnxxx
الرجوع الى أعلى الصفحة اذهب الى الأسفل
معاينة صفحة البيانات الشخصي للعضو
loco del flamenco
مشرف فن الفلامنكو


ذكر
عدد الرسائل : 1225
العمر : 96
البلد : viva España
المزاج : flamenco en mi sangre
المزاج :
اوسمة :
تاريخ التسجيل : 23/10/2007

مُساهمةموضوع: رد: تاب مرياتشي لانطونيو بانديراسAntonio Banderas Desperado   الثلاثاء أبريل 08, 2008 5:43 pm

olé olé
الرجوع الى أعلى الصفحة اذهب الى الأسفل
معاينة صفحة البيانات الشخصي للعضو
loco del flamenco
مشرف فن الفلامنكو


ذكر
عدد الرسائل : 1225
العمر : 96
البلد : viva España
المزاج : flamenco en mi sangre
المزاج :
اوسمة :
تاريخ التسجيل : 23/10/2007

مُساهمةموضوع: كواردات antonio banderas Mariachi   الثلاثاء أبريل 08, 2008 5:48 pm

e|---------7-7-7-7-8-7-7---8-7-7------|-------5-5-5-5-7-5-5-5-7-5-5----|
B|-------8-8-8-8-8-8-8-8-8-8-8-8-8-10-|-------7-7-7-7-7-7-7-7-7-7-7----|
G|-----9-----------------9-------9-11-|-----7----------------------7-8-|
D|---9--------------------------------|---7------------------------8-9-|
A|------------------------------------|--------------------------------|
E|------------------------------------|--------------------------------|

Mim Si7
Soy un hombre muy honrado, que me gusta lo mejor
Mim
Las mujeres no me faltan ni el dinero ni el amor e|--7/8--7-5--------|
B|-----------7-5-6--|
G|------------------|
Mim Si7
Gineteando en mi caballo, por la sierra yo me voy

Mim
Las estrellas y la luna, ellas me dicen donde voy
e|--0-5-8-7-|-----0-5-8-7----|-----0-5-8-7------|---0-5-8-7----|
B|----------|----------------|------------------|--------------|

Lam Mim
Ay , ay , ay , ay
e|-8-7-6-+-8-7-6-|-6-5-4-+-6-5-4-|
B|-------+-------|-------+-------|

Si7 Mim
Ay , ay , mi amor
e|-4-3-2-+-4-3-2-|-6-4-3-|-5-4-3-|
B|-------+-------|-------|-------|

Lam Mim Si7 Mim
Ay mi morena de mi corazon
e|-8-7-6-+-8-7-6-|-6-5-4-+-6-5-4-|-4-3-2-|-4-3-2---|
B|-------+-------|-------+-------|-------|-------4-|


(Aca es el intro otra vez)

Mim Si7
Me gusta tocar guitarra, me gusta cantar al sol (punteados con arrastre)
Mim
Mi mariachi me acompaña, cuando canto mi cancion
e|--2/5---2/5---2/5---2/5---2/5---2/5---2/5---2/5--+--2/6--|
B|--3/6---3/6---3/6---3/6---3/6---3/6---3/6---3/6--+--3/7--|


Mim Si7
Me gusta tomar mis copas, e|--7/8--7-5--------| aguardiente es lo mejor
B|-----------7-5-6--|
G|------------------|
Mim
Tambien el tequila blanca, con su sal le da sabor


Lam Mim
Ay , ay , ay , ay
e|-8-7-6-+-8-7-6-|-6-5-4-+-6-5-4-|
B|-------+-------|-------+-------|

Si7 Mim
Ay , ay , mi amor
e|-4-3-2-+-4-3-2-|-6-4-3-|-5-4-3-|
B|-------+-------|-------|-------|

Lam Mim Si7 Mim
Ay mi morena de mi corazon
e|-8-7-6-+-8-7-6-|-6-5-4-+-6-5-4-|-4-3-2-|-4-3-2---|
B|-------+-------|-------+-------|-------|-------4-|


(aca es donde se pone bueno, esto va solo y un poco veloz)

Mim-Si7-Mim-Si7-Mim-Si7-Mim-Si7-Mim-Si7-MIm
SOLO:

e|-----------12----------------11----------------11-----------|
B|--12----12----12----12----12----12----12----12----12----12--|
G|-----11----------11----11----------11----11----------11-----|
D|------------------------------------------------------------|
A|------------------------------------------------------------|
E|------------------------------------------------------------|


|-------12---------------12----------------11-|
|----12----12----12---12----12----12----12----|
|-11----------11----11---------11----11-------|
|---------------------------------------------|
|---------------------------------------------|
|---------------------------------------------|


|-------------------11----------------12|
|-12----12----12-------12----12----12---|
|----11----11----11-------11----11------|
|---------------------------------------|
|---------------------------------------|
|---------------------------------------|


|----12---12----11------9-----8----|
|-12----12----12---12-----9-----8--|
|--------------------11-----8----7-|
|----------------------------------|
|----------------------------------|
|----------------------------------|

|-7-----6----5-----4----3---------|
|---7-----6----5-----4----3----4--|
|-----6-----5----4-----3-----2----|
|---------------------------------|
|---------------------------------|
|---------------------------------|








|---------------------|----------2--|----------3--|
|--0-0-3-2-1----------|--0-0-3-4----|--0-0-3-4----|
|------------3-2-1----|-------------|-------------|
|------------------2--|-------------|-------------|
|---------------------|-------------|-------------|
|---------------------|-------------|-------------|



|----------2-0-3/5-4-2-----|
|--0-0-3-4-------------3-5-|
|--------------------------|
|--------------------------|
|--------------------------|
|--------------------------|

SILENCIO:

Me gusta tocar guitarra, me gusta cantar el sol e|--5/7-5-3-------|
B|----------3/5---|
Mim G|----------------|
Mi mariachi me acompaña, cuando canto mi cancion


Mim Si7
Me gusta tomar mis copas, aguardiente es lo mejor
Mim
Tambien el tequila blanca, con su sal le da sabor


Lam Mim
Ay, ay, ay, ay
Si7 Mim
Ay, ay, mi amor
La Mim Sol7 Mim
Ay mi morena de mi corazon



Lam Mim
Ay, ay, ay, ay
Si7 Mim
Ay, ay, mi amor
La Mim Sol7 Mim
Ay mi morena de mi corazon....
الرجوع الى أعلى الصفحة اذهب الى الأسفل
معاينة صفحة البيانات الشخصي للعضو
fadl-shaker
قيتارة جديد
قيتارة  جديد


عدد الرسائل : 1
العمر : 30
تاريخ التسجيل : 10/04/2008

مُساهمةموضوع: رد: تاب مرياتشي لانطونيو بانديراسAntonio Banderas Desperado   الخميس أبريل 10, 2008 8:33 am

10x
الرجوع الى أعلى الصفحة اذهب الى الأسفل
معاينة صفحة البيانات الشخصي للعضو
TheGuitarMan
قيتارة جديد
قيتارة  جديد


عدد الرسائل : 2
العمر : 28
تاريخ التسجيل : 19/01/2008

مُساهمةموضوع: رد: تاب مرياتشي لانطونيو بانديراسAntonio Banderas Desperado   الخميس أبريل 10, 2008 12:08 pm

thanks
الرجوع الى أعلى الصفحة اذهب الى الأسفل
معاينة صفحة البيانات الشخصي للعضو
guitar22hassan
قيتارة جديد
قيتارة  جديد


عدد الرسائل : 31
العمر : 33
تاريخ التسجيل : 31/03/2008

مُساهمةموضوع: رد: تاب مرياتشي لانطونيو بانديراسAntonio Banderas Desperado   الخميس أبريل 10, 2008 6:19 pm

شكرا يا امير
الرجوع الى أعلى الصفحة اذهب الى الأسفل
معاينة صفحة البيانات الشخصي للعضو
 
تاب مرياتشي لانطونيو بانديراسAntonio Banderas Desperado
استعرض الموضوع السابق استعرض الموضوع التالي الرجوع الى أعلى الصفحة 
صفحة 2 من اصل 32انتقل الى الصفحة : الصفحة السابقة  1, 2, 3 ... 17 ... 32  الصفحة التالية

صلاحيات هذا المنتدى:لاتستطيع الرد على المواضيع في هذا المنتدى
منتدى قيتارة :: قسم القيتار :: كوردات القيتار ونوتات القيتار-
انتقل الى: