دروس+القيتار+ و+نوتات+و+فديو+غيتار+كوردات+تعليم
 
الرئيسيةس .و .جبحـثالتسجيلالمجموعاتدخول

شاطر | 
 

 طريقة عزف اغنية على بالي لشيرين احمد مع التاب والكوردات

استعرض الموضوع السابق استعرض الموضوع التالي اذهب الى الأسفل 
كاتب الموضوعرسالة
karima
قيتارة نشيط
قيتارة  نشيط


عدد الرسائل : 283
العمر : 36
علم بلدك :
تاريخ التسجيل : 10/09/2007

مُساهمةموضوع: طريقة عزف اغنية على بالي لشيرين احمد مع التاب والكوردات   الخميس أكتوبر 25, 2007 5:45 pm

E||--0--2--3--3--3-3--3-5-7-7-5-|--5---2--2--0---0-0--------|
B||-----------------------------|--------------3-----3-3----|
G||-----------------------------|---------------------------|
D||-----------------------------|---------------------------|
A||-----------------------------|---------------------------|
E||-----------------------------|---------------------------|



-----0--3-5-2---2--2-5-3-7-5-|--3------0--0-0-----------|
--3--------------------------|----------------3-1-3-1---|
-----------------------------|--------------------------|
-----------------------------|--------------------------|
-----------------------------|--------------------------|
-----------------------------|--------------------------|



---------3-2-0--0-0--0-3-2-0-|---3-2-0---0---0-2-------|
---1--3----------------------|-------------4-----------|
-----------------------------|-------------------------|
-----------------------------|-------------------------|
-----------------------------|-------------------------|
-----------------------------|-------------------------|



--0--2--3--3--3-3--3-5-7-7-5-|--5---2--2--0---0-0--------|
-----------------------------|--------------3-----3-3----|
-----------------------------|---------------------------|
-----------------------------|---------------------------|
-----------------------------|---------------------------|
-----------------------------|---------------------------|



-----0--3-5-2---2--2-5-3-7-5-|--3------0--0-0-----------|
--3--------------------------|----------------3-1-3-1---|
-----------------------------|--------------------------|
-----------------------------|--------------------------|
-----------------------------|--------------------------|
-----------------------------|--------------------------|



---------3-2-0--0-0--0-3-2-0-|---3-2-0---0---0-2-------||
---1--3----------------------|-------------4-----------||
-----------------------------|-------------------------||
-----------------------------|-------------------------||
-----------------------------|-------------------------||
-----------------------------|-------------------------||




-----------------------------------
| Artist : Sherine Ahmed |
| Song : 3ala baly |
| Album : lazem a3eesh |
| Type : Chords |
|
-----------------------------------




7abeeto beeny we been nafsy
Em Bm

we ma2olteloosh 3ally fi nefsy
D Am

ma3rafshy eeh beye7saly lama bashoof 3eneeh
C B



maba2etsh 3arfa a2olo eeh
Em Bm

ma3rafshy leeh khabeet 3aleeh
D Am

bad3af awy wana ganbo we basalem 3aleeh
C B

2x

3ala baly wala enta dary belly garaly
Em Bm

wel el layaly seneen taweela sebtehaly
D Am

ya ensheghaly be kol kelma 2oltahaly
C F# B
الرجوع الى أعلى الصفحة اذهب الى الأسفل
معاينة صفحة البيانات الشخصي للعضو
وادى المحبة1
قيتارة جديد
قيتارة  جديد


عدد الرسائل : 5
العمر : 39
تاريخ التسجيل : 02/03/2008

مُساهمةموضوع: رد: طريقة عزف اغنية على بالي لشيرين احمد مع التاب والكوردات   الأحد مارس 02, 2008 12:25 pm

روعة مشكووووووووورة
الرجوع الى أعلى الصفحة اذهب الى الأسفل
معاينة صفحة البيانات الشخصي للعضو
احمد جيتار
قيتارة نشيط
قيتارة  نشيط


ذكر
عدد الرسائل : 105
العمر : 26
علم بلدك :
المزاج :
تاريخ التسجيل : 15/03/2008

مُساهمةموضوع: رد: طريقة عزف اغنية على بالي لشيرين احمد مع التاب والكوردات   الإثنين يوليو 14, 2008 8:19 am

الف شكررررر
الرجوع الى أعلى الصفحة اذهب الى الأسفل
معاينة صفحة البيانات الشخصي للعضو
sine_bi
مشرف منتدى كوردات ونوتات القيتار


ذكر
عدد الرسائل : 555
العمر : 31
البلد : المغرب
الوظيفة : هههههه
علم بلدك :
المزاج :
اوسمة :
تاريخ التسجيل : 02/04/2008

مُساهمةموضوع: رد: طريقة عزف اغنية على بالي لشيرين احمد مع التاب والكوردات   الثلاثاء يوليو 15, 2008 2:04 pm

thank you
الرجوع الى أعلى الصفحة اذهب الى الأسفل
معاينة صفحة البيانات الشخصي للعضو
mario zegnoti
قيتارة فعال
قيتارة  فعال


ذكر
عدد الرسائل : 95
العمر : 30
البلد : العراق
الوظيفة : مهندس
علم بلدك :
تاريخ التسجيل : 19/10/2008

مُساهمةموضوع: رد: طريقة عزف اغنية على بالي لشيرين احمد مع التاب والكوردات   الجمعة أكتوبر 24, 2008 4:15 pm

مشكووور يا كاريما على الاداء الرائع



;n;
الرجوع الى أعلى الصفحة اذهب الى الأسفل
معاينة صفحة البيانات الشخصي للعضو
nono_85
قيتارة جديد
قيتارة  جديد


عدد الرسائل : 16
العمر : 31
تاريخ التسجيل : 09/11/2008

مُساهمةموضوع: رد: طريقة عزف اغنية على بالي لشيرين احمد مع التاب والكوردات   الجمعة نوفمبر 28, 2008 2:48 am

شكرا على المجهود
الرجوع الى أعلى الصفحة اذهب الى الأسفل
معاينة صفحة البيانات الشخصي للعضو
fender
قيتارة جديد
قيتارة  جديد


عدد الرسائل : 3
العمر : 22
تاريخ التسجيل : 11/12/2008

مُساهمةموضوع: رد: طريقة عزف اغنية على بالي لشيرين احمد مع التاب والكوردات   الأربعاء ديسمبر 24, 2008 10:43 am

مشكوور جدا عزفتها و حلوة كتير
الرجوع الى أعلى الصفحة اذهب الى الأسفل
معاينة صفحة البيانات الشخصي للعضو
kader
قيتارة جديد
قيتارة  جديد


عدد الرسائل : 10
العمر : 48
تاريخ التسجيل : 12/02/2010

مُساهمةموضوع: رد: طريقة عزف اغنية على بالي لشيرين احمد مع التاب والكوردات   الجمعة فبراير 12, 2010 8:20 am

تسلم شيرين؛ فنانة مرهفة.
الرجوع الى أعلى الصفحة اذهب الى الأسفل
معاينة صفحة البيانات الشخصي للعضو
 
طريقة عزف اغنية على بالي لشيرين احمد مع التاب والكوردات
استعرض الموضوع السابق استعرض الموضوع التالي الرجوع الى أعلى الصفحة 
صفحة 1 من اصل 1

صلاحيات هذا المنتدى:لاتستطيع الرد على المواضيع في هذا المنتدى
منتدى قيتارة :: قسم القيتار :: كوردات القيتار ونوتات القيتار-
انتقل الى: