دروس+القيتار+ و+نوتات+و+فديو+غيتار+كوردات+تعليم
 
الرئيسيةس .و .جبحـثالتسجيلالمجموعاتدخول

شاطر | 
 

 love story tab

استعرض الموضوع السابق استعرض الموضوع التالي اذهب الى الأسفل 
كاتب الموضوعرسالة
Yahyahinovic007
قيتارة جديد
قيتارة  جديد


عدد الرسائل : 10
العمر : 22
البلد : المغرب
الوظيفة : طالب
المزاج : تت
علم بلدك :
المزاج :
تاريخ التسجيل : 10/06/2010

مُساهمةموضوع: love story tab   الخميس يونيو 10, 2010 8:21 am

E|-8-----------8---8-7-8---------|-------------8---8---------------|----------------------7---------|
B|-----5---5---------------------|-----5---5-----------5---6---5---|--------------------------------|
G|-------------------------------|---------------------------------|-7-9-7----7--5--4--7------------|
D|-------------------------------|---------------------------------|--------------------------------|
A|-------------------------------|---------------------------------|--------------------------------|
E|-------------------------------|---------------------------------|--------------------------------|


E|-------------7---7---------------|-------------------------5---------|---------------5---5---------------|
B|---------------------------------|-------------------5---------------|-----------------------------------|
G|-----7---7-----------7---9---7---|-5---5-7-5-4-5--7-----5------------|-----3-5---5-----------5---7---5---|
D|---------------------------------|-----------------------------------|-----------------------------------|
A|---------------------------------|-----------------------------------|-----------------------------------|
E|---------------------------------|-----------------------------------|-----------------------------------|


E|---------------------4---------|------2-5---5---7-5-7------------|-8-----------8---8-7-8---------|
B|-------------------------------|-------------------------6----5--|-----5---5---------------------|
G|-4-------5--4--2--4------------|---------------------------------|-------------------------------|
D|-------------------------------|---------------------------------|-------------------------------|
A|-------------------------------|---------------------------------|-------------------------------|
E|-------------------------------|---------------------------------|-------------------------------|


E|---------------8---8---------------|----------------------7---------|-------------7---7---------------|
B|-----3-5---5-----------5---6---5---|--------------------------------|---------------------------------|
G|-----------------------------------|-7-9-7----7--5--4--7------------|-----7---7-----------7---9---7---|
D|-----------------------------------|--------------------------------|---------------------------------|
A|-----------------------------------|--------------------------------|---------------------------------|
E|-----------------------------------|--------------------------------|---------------------------------|


E|-------------------------5---------|-7-5-7---------4---5--4--5--4--5--4--5-4-5-|
B|-------------------5---------------|-------------------------------------------|
G|-5---5-7-5-4-5--7-----5------------|-------------------------------------------|
D|-----------------------------------|-------------------------------------------|
A|-----------------------------------|-------------------------------------------|
E|-----------------------------------|-------------------------------------------|


E|-4-5-4-5-4-5-4-5-4------|-5-4-5-----5-----5--|-5------|
B|------------------------|--------------------|--------|
G|------------------------|--------------------|--------|
D|------------------------|--------------------|--------|
A|------------------------|--------------------|--------|
E|------------------------|--------------------|--------|
الرجوع الى أعلى الصفحة اذهب الى الأسفل
معاينة صفحة البيانات الشخصي للعضو
Yahyahinovic007
قيتارة جديد
قيتارة  جديد


عدد الرسائل : 10
العمر : 22
البلد : المغرب
الوظيفة : طالب
المزاج : تت
علم بلدك :
المزاج :
تاريخ التسجيل : 10/06/2010

مُساهمةموضوع: رد: love story tab   الخميس يونيو 10, 2010 8:23 am

pro type j4qttend rodoud
الرجوع الى أعلى الصفحة اذهب الى الأسفل
معاينة صفحة البيانات الشخصي للعضو
 
love story tab
استعرض الموضوع السابق استعرض الموضوع التالي الرجوع الى أعلى الصفحة 
صفحة 1 من اصل 1
 مواضيع مماثلة
-
» اجمل التعليقات علي مشاهد وصور المنتخب المصري في انجولا ....... خش اضحكلك شوية
» 1 summary on great expectations
» the most important quotaions in the spiders
» صور بها كلمات love

صلاحيات هذا المنتدى:لاتستطيع الرد على المواضيع في هذا المنتدى
منتدى قيتارة :: قسم القيتار :: كوردات القيتار ونوتات القيتار-
انتقل الى: