دروس+القيتار+ و+نوتات+و+فديو+غيتار+كوردات+تعليم
 
الرئيسيةس .و .جبحـثالتسجيلالمجموعاتدخول

شاطر | 
 

 تعلّم قراءة التاب

استعرض الموضوع السابق استعرض الموضوع التالي اذهب الى الأسفل 
كاتب الموضوعرسالة
lara
مشرفة منتدى الترجمة


عدد الرسائل : 571
العمر : 31
تاريخ التسجيل : 09/11/2007

مُساهمةموضوع: تعلّم قراءة التاب   الخميس سبتمبر 03, 2009 6:32 pm

بسم الله

/ اولاً : لازم تعرف اسماء الاوتار بالترتيب عشان تعرف ترتيب الاوتار بالتاب مثلاً
----------------------------------------E 1
----------------------------------------B 2
----------------------------------------G 3
----------------------------------------D 4
----------------------------------------A 5
----------------------------------------E 6

mi , ci , sol , ri , la , mi

طبعا كل لون يعبر عن اسم الوتر بالشكل انا حطيت ارقام عشان للي ما يعرف الترتيب وطبعا ً الوتر السادس هو الغليظ هذه معلومات المفروض يكون العازف عارفها قبل لا يمسك الجيتار بسس للي بدايته غلط مثلي

ثانيا ً : بيجيك شكل التاب نفس ما هو موضّح فوق بس الاغلب ما في حروف اللي هي اسماء الاوتار في كذا شيء بديهي انه الوتر الغليظ هو آخر واحد من تحت .

ثالثا ً : هذا هو التاب
--------------------------------------0---1--3--1--0-
----------------------1--0--1--3--0-----------------
-----------2--1--2-----------------------------------
------------------------------------------------------
------------------------------------------------------
------------------------------------------------------
كل خط يمثل وتر زي ما قلنا بالبداية والارقام هذه اللي فيه هي الخانات والصفر يعني ينعزف فاضي بدون ان تضغط على خانة
يعني يصير الوتر الاول فوق / وتر فاضي , الخانة الاولى , الخانة الثالثة , الخانة الاولى , الوتر فاضي ؛؛ اتوقع فهمتوا ^_^

التاب ينعزف من اليسار لليمين بترتيب الارقام يعني ما تجي ارقام تحت بعض الا انها وحدة من الثنتين يا انها كورد زي كذا

-------------------------------0-- الوتر فاضي
-------------------------------0-- الوتر فاضي
-------------------------------1-- الخانة الاولى الوتر الثالث
-------------------------------2-- الخانة الثانية الوتر الرابع
-------------------------------2-- الخانة الثانية الوتر الخامس
-------------------------------0-- الوتر فاضي

هذا كورد ينعزف بالرتم اللي يعجبك او برتم الاغنية اللي تعزفها

هذا بالنسبة للكورد , والاحتمال الثاني هو انه تعزف الاوتار مع بعض مثلا زي كذا

-----------------5----------
---------------------------
---------------------------
---------------------------
---------------------------
----------------0-----------

هذا تعزف الوتر السادس فاضي و الوتر الاول ( اللي هو اللي تحت ) الخانة الخامسة مثل ما هو موجود بالرومانزا مع بعض

وتمشي زي كذا مع التاب من اليسااااااااار الى ما يخلص وتذكر ان كل رقم يعبر عن خانة وكل وخط يعبر عن وتر وكل رقم 0 يعبر عن عزف الوتر فاضي بدووون ضغط

طبعا ً في اشياء كثيييير بالتاب ما اعرفها للحين وهي الازمان وكذا اتمنى من اللي يعرف يفيدنا
الرجوع الى أعلى الصفحة اذهب الى الأسفل
معاينة صفحة البيانات الشخصي للعضو
mosab17
قيتارة فعال
قيتارة  فعال


عدد الرسائل : 85
العمر : 25
تاريخ التسجيل : 02/09/2009

مُساهمةموضوع: رد: تعلّم قراءة التاب   الإثنين سبتمبر 14, 2009 8:13 pm

طيب اختي هاي انا فهمتها
-------------------------------------0---1--3--1--0-
----------------------1--0--1--3--0-----------------
-----------2--1--2-----------------------------------
------------------------------------------------------
------------------------------------------------------
------------------------------------------------------

بس كيف بدي اقرأ هاي
__Bm_____________________G____________________A_______F_______
بليز اذا حدا بيعرف بيعلمني
الرجوع الى أعلى الصفحة اذهب الى الأسفل
معاينة صفحة البيانات الشخصي للعضو
روميو
قيتارة نشيط
قيتارة  نشيط


عدد الرسائل : 275
العمر : 36
تاريخ التسجيل : 31/05/2008

مُساهمةموضوع: رد: تعلّم قراءة التاب   الثلاثاء سبتمبر 15, 2009 10:49 am

هذه كوردات وليست تاب ومثال على دلك

Am E
A smoky room a small café
D
They come to hear you play
Am E
And drink and dance the night away
Am C
I sit out in the crowd
D
And close my eyes
G
Dream you're mine
A
But you don't know
Am G
You don't even know that I am there


D E
I wish that I was in your arms
F#
Like that spanish guitar
G D
And you would play me through the night
E
'till the dawn
تعزف عن طريق الرتم
الرجوع الى أعلى الصفحة اذهب الى الأسفل
معاينة صفحة البيانات الشخصي للعضو
abdalrahman
قيتارة جديد
قيتارة  جديد


عدد الرسائل : 8
العمر : 29
تاريخ التسجيل : 01/07/2010

مُساهمةموضوع: رد: تعلّم قراءة التاب   الإثنين يوليو 05, 2010 4:38 am

روعة
الرجوع الى أعلى الصفحة اذهب الى الأسفل
معاينة صفحة البيانات الشخصي للعضو
abdalrahman
قيتارة جديد
قيتارة  جديد


عدد الرسائل : 8
العمر : 29
تاريخ التسجيل : 01/07/2010

مُساهمةموضوع: رد: تعلّم قراءة التاب   الخميس يوليو 29, 2010 5:38 am

جميلة جدا
الرجوع الى أعلى الصفحة اذهب الى الأسفل
معاينة صفحة البيانات الشخصي للعضو
tito30008
قيتارة جديد
قيتارة  جديد


عدد الرسائل : 8
العمر : 25
تاريخ التسجيل : 01/11/2011

مُساهمةموضوع: رد: تعلّم قراءة التاب   الجمعة نوفمبر 04, 2011 6:05 pm

thxxxxxxxxx
الرجوع الى أعلى الصفحة اذهب الى الأسفل
معاينة صفحة البيانات الشخصي للعضو
 
تعلّم قراءة التاب
استعرض الموضوع السابق استعرض الموضوع التالي الرجوع الى أعلى الصفحة 
صفحة 1 من اصل 1

صلاحيات هذا المنتدى:لاتستطيع الرد على المواضيع في هذا المنتدى
منتدى قيتارة :: تعليم الموسيقى :: منتدى تعليم الموسيقى والنوتة-
انتقل الى: