دروس+القيتار+ و+نوتات+و+فديو+غيتار+كوردات+تعليم
 
الرئيسيةس .و .جبحـثالتسجيلالمجموعاتدخول

شاطر | 
 

 كوردات Nirvana

استعرض الموضوع السابق استعرض الموضوع التالي اذهب الى الأسفل 
كاتب الموضوعرسالة
Smail
قيتارة جديد
قيتارة  جديد


ذكر
عدد الرسائل : 8
العمر : 28
البلد : maroc
علم بلدك :
المزاج :
تاريخ التسجيل : 25/11/2008

مُساهمةموضوع: كوردات Nirvana   الإثنين ديسمبر 01, 2008 3:57 pm

Smail
Nirvana -The Man Who Sold The World


G#m-355333
C#m-335543
Am-544555
Emaj-022100

Main Riff:

e-----------------|
B-----------------|
G-----------------|
D-6-6-6-4-6h7p6-4-|
A-----------------|
E-----------------|

Rhythm during intro: G#m, C#m

G#m C#m
We passed upon the stair, we spoke of was and when

G#m Am
Although I wasn't there, he said I was his friend

Emaj G#m
Which came as some surprise I spoke into his eyes

C#m G#m
I thought you died alone, a long long time ago


Hook:

Emaj
Oh no, not me
I never lost control
You're face to face
With The Man Who Sold The World

e-----------------|
B-----------------|
G-----------------| (This is bass, but it's fun to
D-------------1-2-| play on guitar.)
A-------0-2-4-----|
E-0-2-4-----------|

G#m C#m
I laughed and shook his hand, and made my way back home

G#m Am
I searched for form and land, for years and years I roamed

Emaj G#m
I gazed a gazley stare at all the millions here

C#m G#m
We must have died along, a long long time ago

Emaj
Who knows? not me
We never lost control
You're face to face
With the Man who Sold the World


Solo:

e---------------------------------------------------------------------
B---------------------------------------------------------------------
G---------------------------------------------------------------------
D-6/12~-14p13-13~-6-6-6-4-6h7p6-4-6-6-6-4-6h7p6-4/13~-14~-14p13-13p11-
A---------------------------------------------------------------------
E---------------------------------------------------------------------

e---------------------------------------------------------------------
B---------------------------------------------------------------------
G---------------------------------------------------------------------
D-11-11h13-13-6-6-6-4-6h7p6-4-6-6-6-4-6h7p6-4-/13-14~-14p13-13p11-----
A---------------------------------------------------------------------
E---------------------------------------------------------------------

e------------------------------------------------|
B------------------------------------------------|
G------------------------------------------------|
D-11-11h13-13-6-6-6-4-6h7p6-4-6-6-6-4-6h7p6-4-6~-|
A------------------------------------------------|
E------------------------------------------------|






Nirvana -Rape Me


ntro: Clean/Dist. off
x x x x A5,C5,E5,G5 2x

Verse1: Clean/Dist. off
e---------------------------------------------------
B---------------------------------------------------
G------------------5--------------------------------
D-----7---------5--5--5--------2------------5-------
A-----7------3----------3------2---------5--5--5----
E--5-----5------------------0-----0---3----------3--
Rape me
Rape me my friend
Rape me
Rape me again
Dist. on!

Chorus:
A5 C5 E5 G5
I am not the only one aaahhhhaaa
I am not the only one aaahhhhaaa
I am not the only one aaahhhhaaa
I am not the only one

Verse 2:
A C E G
Rape me
Do it and do it again
Waste me
Rape me again

Here play Chorus

Bridge:
C#5 A5 A-----3-2-1-0
My favorite inside source
I'll kiss your open sores
appreciate your concern
you'll always stink and burn

Then.......F5.....G5......A5-let ring

Verse1:
A5 C5 E5 G5
Rape me
Rape my friend
Rape me
Rape me again

Here play Chorus

Interlude:
A5 C5 G5 E5
Rape me, Rape me, Rape me, Rape me 4x
Smail
الرجوع الى أعلى الصفحة اذهب الى الأسفل
معاينة صفحة البيانات الشخصي للعضو
Smail
قيتارة جديد
قيتارة  جديد


ذكر
عدد الرسائل : 8
العمر : 28
البلد : maroc
علم بلدك :
المزاج :
تاريخ التسجيل : 25/11/2008

مُساهمةموضوع: رد: كوردات Nirvana   الإثنين ديسمبر 01, 2008 4:10 pm

Smail
Nirvana -Come As You Are


Intro/verse:
e-----------------------------------
B-----------------------------------
G-----------------------------------
D-----------------------------------
A---------0---0---------2---2---2---
E-0-0-1-2---2---2-2-1-0---0---0---0-

Chorus:
F# G#
e---------------------
B---------------------
G---------------------
D-4-4-4/6---6-6-6-6-6-
A-4-4-4/6---6-6-6-6-6-
E-2-2-2/4---4-4-4-4-4-

Bridge:
A# C#
e------------------------
B------------------------
G------------------------
D-8-8-8/11---11-11-11-11-
A-8-8-8/11---11-11-11-11-
E-6-6-6/9----9--9--9--9--

Solo:
e-------------------------------------------
B-------------------------------------------
G-6-6-6--[9-11-6-9-11-6-9-11 11/14--11-9-6]-
D-------------------------------------------
A-------------------------------------------
E-------------------------------------------

Intro x4
Verse x8
Chorus x4
Verse x4
Chorus x4
Bridge x4
Solo x4 (section in brackets and after bass plays intro twice)
Chorus x4
Bridge x6
Intro x4


Lyrics:

Come as you are, as you were
As I want you to be
As a friend, as a friend
As an old enemy
Take your time, hurry up
Choice is yours don't be late
Take a rest, as a friend
As an old enemyyyy yeah

Memoria
Memoria
Memoria

Come dowsed in mud, soaked in bleach
As I want you to be
As a trend, as a friend
As an old enemyyyy yeah

Memoria
Memoria
Memoria

Well I swear that I don't have a gun
No I don't have a gun
No I don't have a gun

ria
Memoria
Memoria
Memoria

Well I swear that I don't have a gun
No I don't have a gun
No I don't have a gun
No I don't have a gun
No I don't have a gun

Memoria
Memoria
Smail
الرجوع الى أعلى الصفحة اذهب الى الأسفل
معاينة صفحة البيانات الشخصي للعضو
loco del flamenco
مشرف فن الفلامنكو


ذكر
عدد الرسائل : 1225
العمر : 96
البلد : viva España
المزاج : flamenco en mi sangre
المزاج :
اوسمة :
تاريخ التسجيل : 23/10/2007

مُساهمةموضوع: رد: كوردات Nirvana   الأربعاء ديسمبر 17, 2008 7:33 am

muchas gracias
الرجوع الى أعلى الصفحة اذهب الى الأسفل
معاينة صفحة البيانات الشخصي للعضو
 
كوردات Nirvana
استعرض الموضوع السابق استعرض الموضوع التالي الرجوع الى أعلى الصفحة 
صفحة 1 من اصل 1

صلاحيات هذا المنتدى:لاتستطيع الرد على المواضيع في هذا المنتدى
منتدى قيتارة :: قسم القيتار :: كوردات القيتار ونوتات القيتار-
انتقل الى: