دروس+القيتار+ و+نوتات+و+فديو+غيتار+كوردات+تعليم
 
الرئيسيةس .و .جبحـثالتسجيلالمجموعاتدخول

شاطر | 
 

 Enrique Eglesias - Bailamos

استعرض الموضوع السابق استعرض الموضوع التالي اذهب الى الأسفل 
كاتب الموضوعرسالة
mario zegnoti
قيتارة فعال
قيتارة  فعال


ذكر
عدد الرسائل : 95
العمر : 30
البلد : العراق
الوظيفة : مهندس
علم بلدك :
تاريخ التسجيل : 19/10/2008

مُساهمةموضوع: Enrique Eglesias - Bailamos   الأربعاء نوفمبر 19, 2008 5:59 am

Song:Bailamos
Artist:Enrique Iglesias
tabbed by: MT


|
| Key |
| |
| / = slide up |
| \ = slide down |
| h = hammer |
| p = pull |
| ~ = vibrato |


Intro Part 1 (with Guitar only)
e-------------------------------------------------------
B-------------------------------------------------------
G-------------------------------------------------------
D---------7---10---9---7---9---7------------------------
A---5------------------------------8----------7h8p7h8p7-
E-------------------------------------------------------



Intro Part 2 you should listen to the song for timing
e-------------------------------------------------------
B-------------------------------------------------------
G-------------------------------------------------------
D------7h10--9--7--9~~-----7----------------------------
A---7-------------------------8--------7h8p7--5--7------
E-------------------------------------------------------

e-------------------------------------------------------
B-----8-------------------------------------------------
G--------10--9--7---------------------------------------
D--7-------------------10p9p7---------------------------
A-------------------------------------------------------
E-------------------------------------------------------

INTRO:Am-Dm-Am-Dm

VERSE 1: Am-Dm-G-F-Am
Am-Dm-G-F-E
Am-F-C-G-E

CHORUS: Am-G-F
Am-G-F
Am-G-F
Am-G-F-E



ONCE AGAIN , DUDE LISTEN TO THE SONG FOR
EXACT TIMING!!!!!!


solo after 1st chorus
e--------------------------------------------------------------
B--9--9------9--10--9------------------------------------------
G----------------------9---------------------------------------
D-------------------------9--7----7/9\7------7/10\9--10--9--7--
A--------------------------------------------------------------
E--------------------------------------------------------------

e--------------------------------------------------------------
B--------------------------------------------------------------
G--9--10--9--10--9---------------------------------------------
D-------------------10--10/12------10p9p7--6/7-----------------
A--------------------------------------------------------------
E--------------------------------------------------------------


VERSE 2:Here 2 guitars should play toghether Guitar 1 you play the
same chords as verse 1 , and you guitar 2 play individual solos with
each line of lyrics

Play this solo after...
e---------------------------------------------
B---------------------------------------------
G--9h10--9-----7------------------------------
D----------------10--9------------------------
A---------------------------------------------
E---------------------------------------------
"Tonight, I'm yours...."

e---------------------------------------------
B---------------------------------------------
G---------------------------------------------
D--------9h10--9--7--9h10~~~------------------
A--7--8---------------------------------------
E---------------------------------------------

e---------------------------------------------
B---------------------------------------------
G--7/9--7/9--7~~~-----------------------------
D---------------------------------------------
A---------------------------------------------
E---------------------------------------------

e---------------------------------------------
B---------------------------------------------
G---------------------------------------------
D-----7------9--10--9--7----------------------
A--7------------------------------------------
E---------------------------------------------

e---------------------------------------------
B--------------------------------7--7/9-------
G---------------------------------------------
D--9----9h10----------------------------------
A---------------------------------------------
E---------------------------------------------

REPEAT CHORUS

INTERLUDE: Same chords as chorus

Solo after interlude
e------------------------------------------------------------
B------------------------------------------------------------
G--------------------------------------7-------7/9--7--------
D-----7--10--9--7--10--9------7/9--10-----10-----------------
A--7---------------------------------------------------------
E------------------------------------------------------------

e------------------------------------------------------------
B------------------------------------------------------------
G--10--9--7--9--10----9--7--9----9/10~~~----9--7-------------
D------------------------------------------------------------
A------------------------------------------------------------
E------------------------------------------------------------

e------------------------------------------------------------
B--6/8-------------------------------------------------------
G-------10--9--7---------------------------------------------
D-----------------10--9--7----------7----9-------------------
A---------------------------6--5/7---------------------------
E------------------------------------------------------------

e--7--8--10--10----8----10/12--10----------------------------
B------------------------------------------------------------
G------------------------------------------------------------
D------------------------------------------------------------
A------------------------------------------------------------
E------------------------------------------------------------

e------------------------------------------------------------
B--10--13--12----10--12--10------10--13--12----10--12--10----
G------------------------------------------------------------
D------------------------------------------------------------
A------------------------------------------------------------
E------------------------------------------------------------

e------------------------------------------------------------
B--12----10--------------------------------------------------
G------------12----------------------------------------------
D------------------9----7------7--5--------------------------
A------------------------------------7--5--------------------
E------------------------------------------7--5--------------

CHORUS AGAIN
الرجوع الى أعلى الصفحة اذهب الى الأسفل
معاينة صفحة البيانات الشخصي للعضو
loco del flamenco
مشرف فن الفلامنكو


ذكر
عدد الرسائل : 1225
العمر : 96
البلد : viva España
المزاج : flamenco en mi sangre
المزاج :
اوسمة :
تاريخ التسجيل : 23/10/2007

مُساهمةموضوع: رد: Enrique Eglesias - Bailamos   الأربعاء ديسمبر 17, 2008 7:34 am

muchas gracias 6987gjfg
الرجوع الى أعلى الصفحة اذهب الى الأسفل
معاينة صفحة البيانات الشخصي للعضو
 
Enrique Eglesias - Bailamos
استعرض الموضوع السابق استعرض الموضوع التالي الرجوع الى أعلى الصفحة 
صفحة 1 من اصل 1
 مواضيع مماثلة
-
» Enrique Iglesias Don't You Forget About Me Lyricsكلمات اغنية
» Enrique iglesias-6 album's

صلاحيات هذا المنتدى:لاتستطيع الرد على المواضيع في هذا المنتدى
منتدى قيتارة :: قسم القيتار :: كوردات القيتار ونوتات القيتار-
انتقل الى: