دروس+القيتار+ و+نوتات+و+فديو+غيتار+كوردات+تعليم
 
الرئيسيةس .و .جبحـثالتسجيلالمجموعاتدخول

شاطر | 
 

 Enrique Iglesias - Be with U Tab

استعرض الموضوع السابق استعرض الموضوع التالي اذهب الى الأسفل 
كاتب الموضوعرسالة
mario zegnoti
قيتارة فعال
قيتارة  فعال


ذكر
عدد الرسائل : 95
العمر : 30
البلد : العراق
الوظيفة : مهندس
علم بلدك :
تاريخ التسجيل : 19/10/2008

مُساهمةموضوع: Enrique Iglesias - Be with U Tab   الأربعاء نوفمبر 19, 2008 5:54 am

Intro:

e---5--3-2H3P2-0-----------------3/5-5-5/7-0----------------
B----------------5P3-5-5/7-7-----------------3P2P0----3H5P3-
G-2---------------------------2-----------------------------
D-----------------------------------------------------------
A-----------------------------------------------------------
E-----------------------------------------------------------

Verse 1:

e----------------------5------------------------5-
B---------------------3---------------------3P2---
G-----------------4-2-----------------------------
D-------------------------------------------------
A-------------------------------------------------
E------------------------------------------------
(


Verse 2 Solo:

e--------------------------------------
B-5/7---5-3--3H5-3-----------3-3--5--3-
G-----------------4--4P2H4--2----------
D--------------------------------------
A--------------------------------------
E--------------------------------------

Verse 2 Fill:

e--------------------5----------------------------------
B----------------3P2----------------------3-2-5--7--5-3-
G---------------------------------------2---------------
D-------------------------------------------------------
A-------------------------------------------------------
E------------------------------------------------------
...TEARS I TRY TO SMILE I KNOW THE TOUCH OF
YOUR HAND CAN SAVE MY LIFE ..........

Solo Part :
e--------5-----------------------------------------
B-2-3-5---3---2-3-2H3P2------------5/7-7-7-5-3-3H5-
G-----------------------4--------------------------
D--------------------------------------------------
A--------------------------------------------------
E------------------------------------------------
....DON'T LET ME DOWN ..........

e----------------3---5-5-3-2-2H3-3/7-10--12-12-12-10-9--9-10---
B-----------------------------------------------------------10-
G--------------------------------------------------------------
D--------------------------------------------------------------
A--------------------------------------------------------------
E--------------------------------------------------------------
COME TO ME NOW I GOT TO ...........

Third Part Of Chorus :

e--------------------------
B--------------5P3-5--5--7-
G--------------------------
D--------------------------
A--------------------------
E-------------------------
BE WITH YOU SOME HOW .......

End:

e-----------------------------
B--------------2-3-5-3-2H3P2--
G----------2-4--------------4-
D-----------------------------
A-----------------------------
E-----------------------------
Be With YOU...

e--------------------------
B-------------2-3-5--3P2-3-
G-------------------------
D-----------------------------
A-----------------------------
E-----------------------------
......BE WITH YOU.. ..

e-----------------------------------------------
B--------------------10-10-10-8-8-8-7-7-7-5-3-5-
G-----------------------------------------------
D-----------------------------------------------
A-----------------------------------------------
E-----------------------------------------------
I WANNA BE WITH YOU...


ضع ردا ,,, لرؤية الر
MT
الرجوع الى أعلى الصفحة اذهب الى الأسفل
معاينة صفحة البيانات الشخصي للعضو
 
Enrique Iglesias - Be with U Tab
استعرض الموضوع السابق استعرض الموضوع التالي الرجوع الى أعلى الصفحة 
صفحة 1 من اصل 1
 مواضيع مماثلة
-
» Enrique Iglesias Don't You Forget About Me Lyricsكلمات اغنية
» Enrique iglesias-6 album's

صلاحيات هذا المنتدى:لاتستطيع الرد على المواضيع في هذا المنتدى
منتدى قيتارة :: قسم القيتار :: كوردات القيتار ونوتات القيتار-
انتقل الى: