دروس+القيتار+ و+نوتات+و+فديو+غيتار+كوردات+تعليم
 
الرئيسيةس .و .جبحـثالتسجيلالمجموعاتدخول

شاطر | 
 

 رووعه تاب اغنيه I'll Always Be Right there

اذهب الى الأسفل 
كاتب الموضوعرسالة
mario zegnoti
قيتارة فعال
قيتارة  فعال
avatar

ذكر
عدد الرسائل : 95
العمر : 31
البلد : العراق
الوظيفة : مهندس
علم بلدك :
تاريخ التسجيل : 19/10/2008

مُساهمةموضوع: رووعه تاب اغنيه I'll Always Be Right there   الأربعاء نوفمبر 19, 2008 3:38 am

I'll Always Be Right There........By Bryan Adams




diddd
A A D/F# A
|----------------|-----0-------5--|-2------------0-|----------------|
|---------2---3--|----------------|-3--------3---2-|----------------|
|---------2------|----------------|-2------------2-|--------------2-|
|----2-----------|----------------|-4------------2-|----------------|
|-0--------------|-0-------0------|-0----0-------0-|----------------|
|----------------|----------------|----------------|----------------|

A A D/F# A
|----------------|-----0-------5--|-2------------0-|----------------|
|---------2---3--|----------------|-3-------3h5--2-|----------------|
|---------2------|----------------|-2------------2-|----------------|
|-----2----------|----------------|-4------------2-|----------------|
|--0-------------|-0-------0------|-0----0-------0-|----------------|
|----------------|----------------|----------------|----------------|

I swear to you I will always be
E A E A
|-----0----------|----------------|-----0----------|----------------|
|-0-------0------|-------------2--|-0-------0------|-------------2--|
|-1-----------1--|---------2------|-1-----------1--|---------2------|
|----------------|-----2----------|----------------|-----2----------|
|----------------|-0--------------|----------------|-0--------------|
|----------------|----------------|----------------|----------------|

there for you There’s nothing I won't do
E A D E
|-----0----------|----------------|----------------|----------------|
|-0-------0------|-------------2--|------------0---|-------------0--|
|-1-----------1--|---------2------|--------2-------|---------1------|
|----------------|-----2----------|-0--------------|-----2----------|
|----------------|-0--------------|----0-----------|----------------|
|----------------|----------------|----------------|-0--------------|

I promise you All my life I will
E E/G# A Bm A/C# D!
|----------------|----------------|-----0----------|----------------|
|----------------|-------------2--|-3------3----0--|----------------|
|-----1------1---|---------2------|----------------|-----2-------2--|
|---2------2-----|-----2----------|----------------|---2-------4----|
|-2--------------|-0--------------|-2--------------|-4-------5------|
|--------4-------|----------------|----------------|----------------|

live for you we will make it through.
E Fm D E
|----------------|----------------|----------------|----------------|
|--------------0-|----------2-----|--------------0-|--------------0-|
|----------1-----|-----2-------2--|----------2-----|----------1-----|
|------2---------|---4---4--------|--0-------------|------2---------|
|----------------|-4--------------|------0---------|----------------|
|-0--------------|----------------|----------------|--0-------------|



CHORUS:
For- ever we will be
D A A/C# D
|----------------|----------------|----------------|----------------|
|---7-----7----5-|---2-------3h5--|--2-------------|--------0-------|
|--7----------6--|---2------------|----------------|-----2----------|
|------7---------|----------------|--------2----0--|----------------|
|----------------|----------------|-----4----------|----------------|
|----------------|----------------|----------------|----------------|

To- gether you and me
D A Fm E
|----------------|-----5----------|----------------|----------------|
|--7----------5--|----------------|----------------|--------------0-|
|--7------7---6--|------------2---|--------------2-|----------1-----|
|-----7----------|----------4-----|----------4-----|------2---------|
|--5----------4--|----------------|------4---------|----------------|
|----------------|--------2-------|--2-------------|--0-------------|

Oh, and when I hold you Nothing can compare
E A/C# E A/C#
|-----0----------|----------------|-----0----------|----------------|
|--0------0------|------------2---|-0-------0------|----------2-----|
|--1----------1--|-------2--------|-1-----------1--|------2---------|
|----------------|-----2---2----2-|----------------|----2---2----2--|
|----------------|--4-------------|----------------|--4-------------|
|----------------|----------------|----------------|----------------|

With all of my heart you know I'll always be....
E A D E
|-----0----------|----------------|----------------|----------------|
|--0------3\\\\2--2-|-----0----------|-------------0--|-------------0--|
|--1-----------2-|--------2---1---|---------2------|----------1-----|
|--------------2-|----------------|--0-------------|------2---------|
|----------------|----------------|------0---------|----------------|
|----------------|----------------|----------------|--0-------------|

right there...
A A
|-0--------------|----------------|----------------|-----0-------5--|
|----------------|----------------|----------2---3-|----------------|
|----------------|----------------|----------2-----|----------------|
|------REST------|----------------|------2---------|----------------|
|----------------|----------------|--0-------------|--0------0------|
|----------------|----------------|----------------|----------------|

D/f# A
|--2-----------0-|----------------|
|--3------3h5--2-|----------------|
|--2-----------2-|----------------|
|--4-----------2-|------REST------|
|--0---0-------0-|----------------|
|----------------|----------------|



VERSE 2:
I believe in us Nothing else could ever
E A E A
|------0---------|----------------|------0---------|----------------|
|--0-------0-----|--------------2-|--0-------0-----|--------------2-|
|--1----------1--|----------2-----|--1----------1--|----------2-----|
|----------------|------2---------|----------------|------2---------|
|----------------|--0-------------|----------------|--0-------------|
|----------------|----------------|----------------|----------------|

mean so much. Your the one I trust
E A D E
|------0---------|----------------|----------------|--------------0-|
|--0-------0-----|-------------2--|-------------0--|------------0---|
|--1----------1--|---------2------|----------2-----|----------1-----|
|----------------|------2---------|--0-------------|-----2----------|
|----------------|--0-------------|------0---------|----------------|
|----------------|----------------|----------------|--0-------------|


Our time has come We're not two people now
E E/G# A Bm A/C# D!
|----------------|----------------|------0---------|----------------|
|----------------|--------------2-|--3------3---0--|----------------|
|--------------1-|----------2-----|----------------|------2-------2-|
|----2-------2---|------2---------|----------------|----2-------4---|
|--2-------------|--0-------------|--2-------------|--4-------5-----|
|----------4-----|----------------|----------------|----------------|

we are one yeah, your second to none.
E Fm D E
|----------------|----------------|----------------|----------------|
|--------------0-|---------2------|-------------0--|--------------0-|
|----------1-----|-----2-----2--2-|---------2------|----------1-----|
|------2---------|---4---4----4---|--0-------------|------2---------|
|----------------|-4--------------|------0---------|----------------|
|--0-------------|----------------|----------------|--0-------------|




CHORUS: (with slight changes, basically the same though)

For- ever we will be
D A A/C# D
|----------------|----------------|----------------|----------------|
|---7-----7---5--|----------------|----------------|----------0-----|
|--7---------6---|----------------|----------2-----|-------2--------|
|------7---------|-----REST-------|------2------0--|----------------|
|----------------|----------------|--4-------------|----------------|
|----------------|----------------|----------------|----------------|

To- gether a family
D A Fm E
|----------------|-----5----------|----------------|------------0---|
|--7---------5---|----------------|-------------2--|-------0------0-|
|--7------7--6---|------------2---|---------2------|----------1-----|
|-----7----------|----------4-----|-----4----------|-----2----------|
|--5---------4---|----------------|----------------|---2------------|
|----------------|--------2-------|--2-------------|-0--------------|

Oh, and when I hold you, nothing can compare
E A/C# E A/C#
|------0---------|----------------|-----0----------|----------------|
|--0------0------|---------2------|--0------0------|----------2-----|
|--1----------1--|-----2-----2----|--1----------1--|------2---------|
|----------------|---2---2-----2--|----------------|----2---2-------|
|----------------|-4--------------|----------------|--4-------------|
|----------------|----------------|----------------|----------------|

With all of my heart you know I'll always be
E A D E
|------0---------|----------------|----------------|----------------|
|--0------3\\\\2--2-|-----0----------|--------------0-|--------------0-|
|--1-----------2-|--------2---1---|----------2-----|----------1-----|
|--------------2-|----------------|--0-------------|------2---------|
|----------------|----------------|------0---------|----------------|
|----------------|----------------|----------------|--0-------------|

right there... GUITAR SOLO:
E A D c#m Bm
|-0--------------|----------------|--5-----------4-|--------2-4p2---|
|----------------|----------------|--7-----------5-|--------3-------|
|----------------|-------6/7------|--7-----------6-|--------4-------|
|------REST------|----------------|--------0--d----|----0--d--------|
|----------------|----------------|----------------|----------------|
|----------------|----------------|----------------|----------------|

A F#m E A
|--0-------------|-----------0----|------0---------|----------------|
|--2------2p0----|-----2---2-----2|--0------0---2--|--------2h3p2---|
|--2----------2--|---2---2-----2--|--1----------2--|----------------|
|----------------|-4--------------|----------------|-----2----------|
|----------------|----------------|------------(0)-|--0-------------|
|----------------|----------------|----------------|----------------|

E A
|----------------|--------0---5---|
|----------------|----------------|
|-1--------------|-----2----------|
|---2------------|--2-------------|
|-----2-0---2-0--|----------------|
|---------4------|----------------|



LAST CHORUS (DIFFERENT):
For- ever we will be
D A A/C# D
|----------------|----------------|----------------|----------------|
|---7-----7----5-|---2-------3h5--|--2-------------|-------0--------|
|--7----------6--|---2------------|----------------|---2------------|
|------7---------|----------------|--------2----0--|----------------|
|----------------|----------------|-----4----------|----------------|
|----------------|----------------|----------------|----------------|

To- gether ooh, just you and me
D A Fm E
|----------------|-----5----------|----------------|------------0---|
|--7------7---5--|----------------|--------------0-|-------0------0-|
|--7----------6--|------------2---|----------2-----|----------1-----|
|-----7----------|----------4-----|------2---------|-----2----------|
|--5----------4--|----------------|----------------|---2------------|
|----------------|--------2-------|--0-------------|-0--------------|

The more I get to know you The more I really care
E A/C# E A/C#
|------0---------|----------------|-----0----------|----------------|
|--0-------0-----|----------2-----|-0-------0------|----------2-----|
|--1-----------1-|-----2------2---|-1-----------1--|-----2-------2--|
|----------------|---2---2------2-|----------------|---2---2--------|
|----------------|-4--------------|----------------|-4--------------|
|----------------|----------------|----------------|----------------|

With all of my heart you know I'll always be,
E A D E
|------0---------|----------------|----------------|-------------0--|
|--0------3---2--|--------0-------|-------------0--|-----------0----|
|--1----------2--|-----------2-1--|----------2-----|---------1------|
|-------------2--|----------------|--0-------------|-----2----------|
|----------------|----------------|------0---------|----------------|
|----------------|----------------|----------------|-0--------------|

And you know I really love you, and nothing can compare
E A/C# E A/C#
|-------0--------|----------------|------0---------|----------------|
|--1--------1----|-----------0--2-|--1------1------|---------2------|
|--0-----------0-|-----2---2------|--0----------0--|-----2-----2----|
|----------------|---2---2--------|----------------|---2---2-----2--|
|----------------|-4--------------|----------------|-4--------------|
|----------------|----------------|----------------|----------------|

For all of my life you know I'll always be....
E A D E
|------0---------|----------------|----------------|----------------|
|--1-------3--2--|--------0-------|-------------0--|--------------0-|
|--0----------2--|-----------2-1--|---------2------|----------1-----|
|-------------2--|----------------|--0-------------|------2---------|
|----------------|----------------|------0---------|----------------|
|----------------|----------------|----------------|--0-------------|

right there....
A A D/F#
|-0--------------|----------------|-----0-------5--|--2-------------|
|----------------|---------2---3--|----------------|--3-------------|
|----------------|---------2------|----------------|--2-------2-----|
|------REST------|-----2----------|----------------|--4---4---------|
|----------------|--0-------------|--0-------0-----|--0-------------|
|----------------|----------------|----------------|----------------|

A "Thankyou very much...
|----------------|--5-------------|----------------|----------------|
|------------5---|----------------|----------------|----------------|
|----------------|----------------|----------------|----------------|
|-------7--------|----LET RING----|----------------|----------------|
|----7-----------|----------------|----------------|----------------|
|-5--------------|----------------|----------------|----------------|


;n;

MT
الرجوع الى أعلى الصفحة اذهب الى الأسفل
معاينة صفحة البيانات الشخصي للعضو
 
رووعه تاب اغنيه I'll Always Be Right there
الرجوع الى أعلى الصفحة 
صفحة 1 من اصل 1

صلاحيات هذا المنتدى:لاتستطيع الرد على المواضيع في هذا المنتدى
منتدى قيتارة :: قسم القيتار :: كوردات القيتار ونوتات القيتار-
انتقل الى: