دروس+القيتار+ و+نوتات+و+فديو+غيتار+كوردات+تعليم
 
الرئيسيةس .و .جبحـثالتسجيلالمجموعاتدخول

شاطر | 
 

 تاب اغنية ليلي طويل للفنان المغربي يونس ميكري

اذهب الى الأسفل 
كاتب الموضوعرسالة
sine_bi
مشرف منتدى كوردات ونوتات القيتار
avatar

ذكر
عدد الرسائل : 555
العمر : 32
البلد : المغرب
الوظيفة : هههههه
علم بلدك :
المزاج :
اوسمة :
تاريخ التسجيل : 02/04/2008

مُساهمةموضوع: تاب اغنية ليلي طويل للفنان المغربي يونس ميكري   الثلاثاء يوليو 15, 2008 3:04 pm

Layli Tawil

Migri Younes
Younes Guitar (Capo 1)
Excellent morceau , merite un oscar Smile


E||--0--0--0--0----0--0--0--|--0--0--0--0----0--0--0--|
B||--1--1--1--1----1--1--1--|--1--1--1--1----1--1--1--|
G||--2--2--2--2----2--2--2--|--2--2--2--2----2--2--2--|
D||--2--2--2--2----2--2--2--|--2--2--2--2----2--2--2--|
A||--0--0--0--0----0--0--0--|--0--0--0--0----0--0--0--|
E||-------------------------|-------------------------|

G G
--0--------0----------0--|--3--3--3--3----3--3--3--|--3--3--3--3----3--3--3--|
--1--1--1--1----1--1--1--|--3--3--3--3----3--3--3--|--3--3--3--3----3--3--3--|
--2--2--2--2----2--2--2--|--0--0--0--0----0--0--0--|--0--0--0--0----0--0--0--|
--2--2--2--2----2--2--2--|--0--0--0--0----0--0--0--|--0--0--0--0----0--0--0--|
--0--0--0--0----0--0--0--|--2--2--2--2----2--2--2--|--2--2--2--2----2--2--2--|
-------------------------|--3--3--3--3----3--3--3--|--3--3--3--3----3--3--3--|

G
--0--0--0--0----0--0--0--|--0--0--0--0----0--0--0--|--3--3--3--3----3--3--3--|
--1--1--1--1----1--1--1--|--1--1--1--1----1--1--1--|--3--3--3--3----3--3--3--|
--2--2--2--2----2--2--2--|--2--2--2--2----2--2--2--|--0--0--0--0----0--0--0--|
--2--2--2--2----2--2--2--|--2--2--2--2----2--2--2--|--0--0--0--0----0--0--0--|
--0--0--0--0----0--0--0--|--0--0--0--0----0--0--0--|--2--2--2--2----2--2--2--|
-------------------------|-------------------------|--3--3--3--3----3--3--3--|

G
--3--3--3--3----3--3--3--|--0--0--0--0----0--0--0--|--0--0--0--0----0--0--0--|
--3--3--3--3----3--3--3--|--1--1--1--1----1--1--1--|--1--1--1--1----1--1--1--|
--0--0--0--0----0--0--0--|--2--2--2--2----2--2--2--|--2--2--2--2----2--2--2--|
--0--0--0--0----0--0--0--|--2--2--2--2----2--2--2--|--2--2--2--2----2--2--2--|
--2--2--2--2----2--2--2--|--0--0--0--0----0--0--0--|--0--0--0--0----0--0--0--|
--3--3--3--3----3--3--3--|-------------------------|-------------------------|

G G
--3--3--3--3----3--3--3--|--3--3--3--3----3--3--3--|--0--0--0--0----0--0--0--|
--3--3--3--3----3--3--3--|--3--3--3--3----3--3--3--|--1--1--1--1----1--1--1--|
--0--0--0--0----0--0--0--|--0--0--0--0----0--0--0--|--2--2--2--2----2--2--2--|
--0--0--0--0----0--0--0--|--0--0--0--0----0--0--0--|--2--2--2--2----2--2--2--|
--2--2--2--2----2--2--2--|--2--2--2--2----2--2--2--|--0--0--0--0----0--0--0--|
--3--3--3--3----3--3--3--|--3--3--3--3----3--3--3--|-------------------------|

G G
--0--0--0--0----0--0--0--|--3--3--3--3----3--3--3--|--3--3--3--3----3--3--3--|
--1--1--1--1----1--1--1--|--3--3--3--3----3--3--3--|--3--3--3--3----3--3--3--|
--2--2--2--2----2--2--2--|--0--0--0--0----0--0--0--|--0--0--0--0----0--0--0--|
--2--2--2--2----2--2--2--|--0--0--0--0----0--0--0--|--0--0--0--0----0--0--0--|
--0--0--0--0----0--0--0--|--2--2--2--2----2--2--2--|--2--2--2--2----2--2--2--|
-------------------------|--3--3--3--3----3--3--3--|--3--3--3--3----3--3--3--|


--0--0--0--0----0--0--0--|--0-----------0--------0--|--0--------------0----|
--1--1--1--1----1--1--1--|--1-----------1--------1--|--1------1--1----1----|
--2--2--2--2----2--2--2--|--2--2--2--2--2--2--2--2--|--0------0--0----0----|
--2--2--2--2----2--2--2--|--2--2--2--2--2--2--2--2--|--2------2--2----2----|
--0--0--0--0----0--0--0--|--0--0--0--0--0--0--0--0--|--3------3--3----3----|
-------------------------|--------------------------|----------------------|

Dm
--3------3--3----3----|--1------1--1----1----|--0------0--0----0----|
--3------3--3----3----|--3------3--3----3----|--1------1--1----1----|
--0------0--0----0----|--2------2--2----2----|--2------2--2----2----|
--0------0--0----0----|--0------0--0----0----|--2------2--2----2----|
--2------2--2----2----|----------------------|--0------0--0----0----|
--3------3--3----3----|----------------------|----------------------|


--0--------------0----|--3------3--3----3----|--0------0--0----0----|
--1------1--1----1----|--3------3--3----3----|--1------1--1----1----|
--0------0--0----0----|--0------0--0----0----|--2------2--2----2----|
--2------2--2----2----|--0------0--0----0----|--2------2--2----2----|
--3------3--3----3----|--2------2--2----2----|--0------0--0----0----|
----------------------|--3------3--3----3----|----------------------|


--0--0--0--0--0--0--0--0--|--0--0----0--0----0----|--0--0----0--0----0----|
--1--1--1--1--1--1--1--1--|--1--1----1--1----1----|--1--1----1--1----1----|
--2--2--2--2--2--2--2--2--|--2--2----2--2----2----|--2--2----2--2----2----|
--2--2--2--2--2--2--2--2--|--2--2----2--2----2----|--2--2----2--2----2----|
--0--0--0--0--0--0--0--0--|--0--0----0--0----0----|--0--0----0--0----0----|
--------------------------|-----------------------|-----------------------|


--3--3----3--3----3----|--3--3----3--3----3----|--0--0----0--0----0----|
--3--3----3--3----3----|--3--3----3--3----3----|--1--1----1--1----1----|
--0--0----0--0----0----|--0--0----0--0----0----|--2--2----2--2----2----|
--0--0----0--0----0----|--0--0----0--0----0----|--2--2----2--2----2----|
--2--2----2--2----2----|--2--2----2--2----2----|--0--0----0--0----0----|
--3--3----3--3----3----|--3--3----3--3----3----|-----------------------|


--0--0----0--0----0----|--3--3----3--3----3----|--3--3----3--3----3----|
--1--1----1--1----1----|--3--3----3--3----3----|--3--3----3--3----3----|
--2--2----2--2----2----|--0--0----0--0----0----|--0--0----0--0----0----|
--2--2----2--2----2----|--0--0----0--0----0----|--0--0----0--0----0----|
--0--0----0--0----0----|--2--2----2--2----2----|--2--2----2--2----2----|
-----------------------|--3--3----3--3----3----|--3--3----3--3----3----|


--0--0----0--0----0----|--0--0----0--0----0----|--3--3----3--3----3----|
--1--1----1--1----1----|--1--1----1--1----1----|--3--3----3--3----3----|
--2--2----2--2----2----|--2--2----2--2----2----|--0--0----0--0----0----|
--2--2----2--2----2----|--2--2----2--2----2----|--0--0----0--0----0----|
--0--0----0--0----0----|--0--0----0--0----0----|--2--2----2--2----2----|
-----------------------|-----------------------|--3--3----3--3----3----|


--3--3----3--3----3----|--0--0----0--0----0----|--0--0----0--0----0----|
--3--3----3--3----3----|--1--1----1--1----1----|--1--1----1--1----1----|
--0--0----0--0----0----|--2--2----2--2----2----|--2--2----2--2----2----|
--0--0----0--0----0----|--2--2----2--2----2----|--2--2----2--2----2----|
--2--2----2--2----2----|--0--0----0--0----0----|--0--0----0--0----0----|
--3--3----3--3----3----|-----------------------|-----------------------|


--3--3----3--3----3----|--3--3--3----3--3--3--3--|--0--0----0--0----0----|
--3--3----3--3----3----|--3--3--3----3--3--3--3--|--1--1----1--1----1----|
--0--0----0--0----0----|--0--0--0----0--0--0--0--|--2--2----2--2----2----|
--0--0----0--0----0----|--0--0--0----0--0--0--0--|--2--2----2--2----2----|
--2--2----2--2----2----|--2--2--2----2--2--2--2--|--0--0----0--0----0----|
--3--3----3--3----3----|--3--3--3----3--3--3--3--|-----------------------|


--0--0----0--0----0----|--3--3----3--3----3----|--3--3----3--3----3----|
--1--1----1--1----1----|--3--3----3--3----3----|--3--3----3--3----3----|
--2--2----2--2----2----|--0--0----0--0----0----|--0--0----0--0----0----|
--2--2----2--2----2----|--0--0----0--0----0----|--0--0----0--0----0----|
--0--0----0--0----0----|--2--2----2--2----2----|--2--2----2--2----2----|
-----------------------|--3--3----3--3----3----|--3--3----3--3----3----|


--0--0----0--0----0----|--0--0----0--0----0----|--3--3----3--3----3----|
--1--1----1--1----1----|--1--1----1--1----1----|--3--3----3--3----3----|
--2--2----2--2----2----|--2--2----2--2----2----|--0--0----0--0----0----|
--2--2----2--2----2----|--2--2----2--2----2----|--0--0----0--0----0----|
--0--0----0--0----0----|--0--0----0--0----0----|--2--2----2--2----2----|
-----------------------|-----------------------|--3--3----3--3----3----|


--3--3----3--3----3----|--0--0----0--0----0----|--0--0----0--0----0----|
--3--3----3--3----3----|--1--1----1--1----1----|--1--1----1--1----1----|
--0--0----0--0----0----|--2--2----2--2----2----|--2--2----2--2----2----|
--0--0----0--0----0----|--2--2----2--2----2----|--2--2----2--2----2----|
--2--2----2--2----2----|--0--0----0--0----0----|--0--0----0--0----0----|
--3--3----3--3----3----|-----------------------|-----------------------|
الرجوع الى أعلى الصفحة اذهب الى الأسفل
معاينة صفحة البيانات الشخصي للعضو
sine_bi
مشرف منتدى كوردات ونوتات القيتار
avatar

ذكر
عدد الرسائل : 555
العمر : 32
البلد : المغرب
الوظيفة : هههههه
علم بلدك :
المزاج :
اوسمة :
تاريخ التسجيل : 02/04/2008

مُساهمةموضوع: رد: تاب اغنية ليلي طويل للفنان المغربي يونس ميكري   الثلاثاء يوليو 15, 2008 3:07 pm

.......الان مع التتمة.......

--3--3----3--3----3----|--3--3----3--3----3----|--0--0----0--0----0----|
--3--3----3--3----3----|--3--3----3--3----3----|--1--1----1--1----1----|
--0--0----0--0----0----|--0--0----0--0----0----|--2--2----2--2----2----|
--0--0----0--0----0----|--0--0----0--0----0----|--2--2----2--2----2----|
--2--2----2--2----2----|--2--2----2--2----2----|--0--0----0--0----0----|
--3--3----3--3----3----|--3--3----3--3----3----|-----------------------|


--0--0----0--0----0----|--0--------------0----|--3------3--3----3----|
--1--1----1--1----1----|--1------1--1----1----|--3------3--3----3----|
--2--2----2--2----2----|--0------0--0----0----|--0------0--0----0----|
--2--2----2--2----2----|--2------2--2----2----|--0------0--0----0----|
--0--0----0--0----0----|--3------3--3----3----|--2------2--2----2----|
-----------------------|----------------------|--3------3--3----3----|


--1------1--1----1----|--0--------------0----|--0--------------0----|
--3------3--3----3----|--1------1--1----1----|--1------1--1----1----|
--2------2--2----2----|--2------2--2----2----|--0------0--0----0----|
--0------0--0----0----|--2------2--2----2----|--2------2--2----2----|
----------------------|--0------0--0----0----|--3------3--3----3----|
----------------------|----------------------|----------------------|


--3------3--3----3----|--0--------------0----|--0--------0--0--0--------|
--3------3--3----3----|--1------1--1----1----|--1--1--1--1--1--1--1--1--|
--0------0--0----0----|--2------2--2----2----|--2--2--2--2--2--2--2--2--|
--0------0--0----0----|--2------2--2----2----|--2--2--2--2--2--2--2--2--|
--2------2--2----2----|--0------0--0----0----|--0--0--0--0--0--0--0--0--|
--3------3--3----3----|----------------------|--------------------------|


--0--------------0----|--3------3--3----3----|--1------1--1----1----|
--1------1--1----1----|--3------3--3----3----|--3------3--3----3----|
--0------0--0----0----|--0------0--0----0----|--2------2--2----2----|
--2------2--2----2----|--0------0--0----0----|--0------0--0----0----|
--3------3--3----3----|--2------2--2----2----|----------------------|
----------------------|--3------3--3----3----|----------------------|


--0--------------0----|--0--------------0----|--3------3--3----3----|
--1------1--1----1----|--1------1--1----1----|--3------3--3----3----|
--2------2--2----2----|--0------0--0----0----|--0------0--0----0----|
--2------2--2----2----|--2------2--2----2----|--0------0--0----0----|
--0------0--0----0----|--3------3--3----3----|--2------2--2----2----|
----------------------|----------------------|--3------3--3----3----|


----------------------|--0--------0--0--0--------|--0--0----0--0----0----|
--1------1--1----1----|--1--1--1--1--1--1--1--1--|--1--1----1--1----1----|
--2------2--2----2----|--2--2--2--2--2--2--2--2--|--2--2----2--2----2----|
--2------2--2----2----|--2--2--2--2--2--2--2--2--|--2--2----2--2----2----|
--0------0--0----0----|--0--0--0--0--0--0--0--0--|--0--0----0--0----0----|
----------------------|--------------------------|-----------------------|


--0--0----0--0----0----|--3--3----3--3----3----|--3--3----3--3----3----|
--1--1----1--1----1----|--3--3----3--3----3----|--3--3----3--3----3----|
--2--2----2--2----2----|--0--0----0--0----0----|--0--0----0--0----0----|
--2--2----2--2----2----|--0--0----0--0----0----|--0--0----0--0----0----|
--0--0----0--0----0----|--2--2----2--2----2----|--2--2----2--2----2----|
-----------------------|--3--3----3--3----3----|--3--3----3--3----3----|


--0--0----0--0----0----|--0--0----0--0----0----|--3--3----3--3----3----|
--1--1----1--1----1----|--1--1----1--1----1----|--3--3----3--3----3----|
--2--2----2--2----2----|--2--2----2--2----2----|--0--0----0--0----0----|
--2--2----2--2----2----|--2--2----2--2----2----|--0--0----0--0----0----|
--0--0----0--0----0----|--0--0----0--0----0----|--2--2----2--2----2----|
-----------------------|-----------------------|--3--3----3--3----3----|


--3--3----3--3----3----|--0--0----0--0----0----|--0--0----0--0----0----|
--3--3----3--3----3----|--1--1----1--1----1----|--1--1----1--1----1----|
--0--0----0--0----0----|--2--2----2--2----2----|--2--2----2--2----2----|
--0--0----0--0----0----|--2--2----2--2----2----|--2--2----2--2----2----|
--2--2----2--2----2----|--0--0----0--0----0----|--0--0----0--0----0----|
--3--3----3--3----3----|-----------------------|-----------------------|


--3--3----3--3----3----|--3--3----3--3----3----|--0--0----0--0----0----|
--3--3----3--3----3----|--3--3----3--3----3----|--1--1----1--1----1----|
--0--0----0--0----0----|--0--0----0--0----0----|--2--2----2--2----2----|
--0--0----0--0----0----|--0--0----0--0----0----|--2--2----2--2----2----|
--2--2----2--2----2----|--2--2----2--2----2----|--0--0----0--0----0----|
--3--3----3--3----3----|--3--3----3--3----3----|-----------------------|


--0--0----0--0----0----|--3--3----3--3----3----|--3--3--3----3--3--3--3--|
--1--1----1--1----1----|--3--3----3--3----3----|--3--3--3----3--3--3--3--|
--2--2----2--2----2----|--0--0----0--0----0----|--0--0--0----0--0--0--0--|
--2--2----2--2----2----|--0--0----0--0----0----|--0--0--0----0--0--0--0--|
--0--0----0--0----0----|--2--2----2--2----2----|--2--2--2----2--2--2--2--|
-----------------------|--3--3----3--3----3----|--3--3--3----3--3--3--3--|


--0--0----0--0----0----|--0--0----0--0----0----|--3--3----3--3----3----|
--1--1----1--1----1----|--1--1----1--1----1----|--3--3----3--3----3----|
--2--2----2--2----2----|--2--2----2--2----2----|--0--0----0--0----0----|
--2--2----2--2----2----|--2--2----2--2----2----|--0--0----0--0----0----|
--0--0----0--0----0----|--0--0----0--0----0----|--2--2----2--2----2----|
-----------------------|-----------------------|--3--3----3--3----3----|


--3--3----3--3----3----|--0--0----0--0----0----|--0--0----0--0----0----|
--3--3----3--3----3----|--1--1----1--1----1----|--1--1----1--1----1----|
--0--0----0--0----0----|--2--2----2--2----2----|--2--2----2--2----2----|
--0--0----0--0----0----|--2--2----2--2----2----|--2--2----2--2----2----|
--2--2----2--2----2----|--0--0----0--0----0----|--0--0----0--0----0----|
--3--3----3--3----3----|-----------------------|-----------------------|


--3--3----3--3----3----|--3--3----3--3----3----|--0--0----0--0----0----|
--3--3----3--3----3----|--3--3----3--3----3----|--1--1----1--1----1----|
--0--0----0--0----0----|--0--0----0--0----0----|--2--2----2--2----2----|
--0--0----0--0----0----|--0--0----0--0----0----|--2--2----2--2----2----|
--2--2----2--2----2----|--2--2----2--2----2----|--0--0----0--0----0----|
--3--3----3--3----3----|--3--3----3--3----3----|-----------------------|


--0--0----0--0----0----|--3--3----3--3----3----|--3--3----3--3----3----|
--1--1----1--1----1----|--3--3----3--3----3----|--3--3----3--3----3----|
--2--2----2--2----2----|--0--0----0--0----0----|--0--0----0--0----0----|
--2--2----2--2----2----|--0--0----0--0----0----|--0--0----0--0----0----|
--0--0----0--0----0----|--2--2----2--2----2----|--2--2----2--2----2----|
-----------------------|--3--3----3--3----3----|--3--3----3--3----3----|


--0--0----0--0----0----|--0--0----0--0----0----||
--1--1----1--1----1----|--1--1----1--1----1----||
--2--2----2--2----2----|--2--2----2--2----2----||
--2--2----2--2----2----|--2--2----2--2----2----||
--0--0----0--0----0----|--0--0----0--0----0----||
-----------------------|-----------------------||
الرجوع الى أعلى الصفحة اذهب الى الأسفل
معاينة صفحة البيانات الشخصي للعضو
superguitar
قيتارة نشيط
قيتارة  نشيط
avatar

عدد الرسائل : 101
العمر : 28
علم بلدك :
المزاج :
اوسمة :
تاريخ التسجيل : 07/07/2008

مُساهمةموضوع: رد: تاب اغنية ليلي طويل للفنان المغربي يونس ميكري   الثلاثاء يوليو 15, 2008 4:11 pm

شكراااااااااااااااااااااااااااااااااا
الرجوع الى أعلى الصفحة اذهب الى الأسفل
معاينة صفحة البيانات الشخصي للعضو
superguitar
قيتارة نشيط
قيتارة  نشيط
avatar

عدد الرسائل : 101
العمر : 28
علم بلدك :
المزاج :
اوسمة :
تاريخ التسجيل : 07/07/2008

مُساهمةموضوع: رد: تاب اغنية ليلي طويل للفنان المغربي يونس ميكري   الثلاثاء يوليو 15, 2008 4:42 pm

gf5+5+kll
الرجوع الى أعلى الصفحة اذهب الى الأسفل
معاينة صفحة البيانات الشخصي للعضو
sine_bi
مشرف منتدى كوردات ونوتات القيتار
avatar

ذكر
عدد الرسائل : 555
العمر : 32
البلد : المغرب
الوظيفة : هههههه
علم بلدك :
المزاج :
اوسمة :
تاريخ التسجيل : 02/04/2008

مُساهمةموضوع: رد: تاب اغنية ليلي طويل للفنان المغربي يونس ميكري   الأربعاء يوليو 16, 2008 1:21 pm

لا شكر على واجب اخي
الرجوع الى أعلى الصفحة اذهب الى الأسفل
معاينة صفحة البيانات الشخصي للعضو
loco del flamenco
مشرف فن الفلامنكو
avatar

ذكر
عدد الرسائل : 1225
العمر : 98
البلد : viva España
المزاج : flamenco en mi sangre
المزاج :
اوسمة :
تاريخ التسجيل : 23/10/2007

مُساهمةموضوع: رد: تاب اغنية ليلي طويل للفنان المغربي يونس ميكري   الأحد أغسطس 10, 2008 6:08 pm

ليلي طويل حتى التاب طويل شكرا لك
الرجوع الى أعلى الصفحة اذهب الى الأسفل
معاينة صفحة البيانات الشخصي للعضو
climamehdi
مشرف منتدى دروس و برامج القيتار
avatar

ذكر
عدد الرسائل : 295
العمر : 41
البلد : المغرب
علم بلدك :
المزاج :
اوسمة :
تاريخ التسجيل : 21/03/2008

مُساهمةموضوع: رد: تاب اغنية ليلي طويل للفنان المغربي يونس ميكري   السبت سبتمبر 06, 2008 12:35 pm

gf5+5+kll
الرجوع الى أعلى الصفحة اذهب الى الأسفل
معاينة صفحة البيانات الشخصي للعضو
Boujmi3
قيتارة جديد
قيتارة  جديد
avatar

عدد الرسائل : 2
العمر : 31
تاريخ التسجيل : 09/10/2008

مُساهمةموضوع: رد: تاب اغنية ليلي طويل للفنان المغربي يونس ميكري   الخميس أكتوبر 09, 2008 6:22 am

شكرا كثيييييييييييييييييييييييييرر
الرجوع الى أعلى الصفحة اذهب الى الأسفل
معاينة صفحة البيانات الشخصي للعضو
 
تاب اغنية ليلي طويل للفنان المغربي يونس ميكري
الرجوع الى أعلى الصفحة 
صفحة 1 من اصل 1

صلاحيات هذا المنتدى:لاتستطيع الرد على المواضيع في هذا المنتدى
منتدى قيتارة :: قسم القيتار :: كوردات القيتار ونوتات القيتار-
انتقل الى: