دروس+القيتار+ و+نوتات+و+فديو+غيتار+كوردات+تعليم
 
الرئيسيةس .و .جبحـثالتسجيلالمجموعاتدخول

شاطر | 
 

 مجموعة كوردات اغاني santana

استعرض الموضوع السابق استعرض الموضوع التالي اذهب الى الأسفل 
كاتب الموضوعرسالة
sine_bi
مشرف منتدى كوردات ونوتات القيتار


ذكر
عدد الرسائل : 555
العمر : 31
البلد : المغرب
الوظيفة : هههههه
علم بلدك :
المزاج :
اوسمة :
تاريخ التسجيل : 02/04/2008

مُساهمةموضوع: مجموعة كوردات اغاني santana   الثلاثاء يوليو 15, 2008 2:54 pm

Smooth - Santana fet. Rob Thomas
Standard Tuning: EADGBE
Intro
e|----------------------------------------------------------|
B|----------------------------------------------------------|
G|--11\12-12-12\14~~~--14--16\17--17-16--14h16--17--16--14--|
D|----------------------------------------------------------|
A|----------------------------------------------------------|
E|----------------------------------------------------------|
Verse
e|----------------------------------------------------------|
B|---------------------12----12-14--15^--15^--12------12----|
G|--------------12h14-----14----------------------14--------|
D|--------12h14---------------------------------------------|
A|--12h14---------------------------------------------------|
E|----------------------------------------------------------|
e|----------------------------------------------------------|
B|--15^---15^--13---15~~~~----------------------------------|
G|----------------------------------------------------------|
D|----------------------------------------------------------|
A|----------------------------------------------------------|
E|----------------------------------------------------------|
e|----------------------------------------------------------|
B|---15--15--13h15p13-------13------------------------------|
G|----------------------14------14\12/14--------------------|
D|----------------------------------------------------------|
A|----------------------------------------------------------|
E|----------------------------------------------------------|
Pre Chorus
e|----------------------------------------------------------|
B|--------------------12h13p12~~~~--------------------------|
G|------------12--14----------------------------------------|
D|-12--14--15-----------------------------------------------|
A|----------------------------------------------------------|
E|----------------------------------------------------------|
e|----------------------------------------------------------|
B|-12h13h15--15^-15^-15^ 15^--13h15--3h15--13h15-13h15--10--|
G|----------------------------------------------------------|
D|----------------------------------------------------------|
A|----------------------------------------------------------|
E|----------------------------------------------------------|
Chorus
e|----------------------------------------------------------|
B|----------------------------------------------15-15-13-12-|
G|-11\12-12\14~~-14-16\17--17-16-14h16--17-16-14------------|
D|----------------------------------------------------------|
A|----------------------------------------------------------|
E|----------------------------------------------------------|
e|----------------------------------------|
B|----------------------------------------|
G|----9^-h-7^-----------------------------|
D|----------------------------------------|
A|----------------------------------------|
E|----------------------------------------|
2nd Verse
e|----------------------------------------|
B|------------------12--13-12h13-----12---|
G|----------12--14----------------14------|
D|--12--14--------------------------------|
A|----------------------------------------|
E|----------------------------------------|
e|----------------------------------------|
B|---7\10--12--13-12h13--12--10-----------|
G|----------------------------------------|
D|----------------------------------------|
A|----------------------------------------|
E|----------------------------------------|
الرجوع الى أعلى الصفحة اذهب الى الأسفل
معاينة صفحة البيانات الشخصي للعضو
sine_bi
مشرف منتدى كوردات ونوتات القيتار


ذكر
عدد الرسائل : 555
العمر : 31
البلد : المغرب
الوظيفة : هههههه
علم بلدك :
المزاج :
اوسمة :
تاريخ التسجيل : 02/04/2008

مُساهمةموضوع: رد: مجموعة كوردات اغاني santana   الثلاثاء يوليو 15, 2008 2:55 pm

2::
BLACK MAGIC WOMAN
BY SANTANA

intro

E-------------------------------------------------------------------------------
B---------------------------------------10-------------------------10-----------
G--10~~-7-7/9\7~~-10h12p10~~-7-7/9\7~~------12-10p9~--12-10-9\7~-------12-10\9--
.....
E----------------------10--------10----10---------------------------------------
B-------------------10--------------13----13-10-13^(15)^13p10---13^(15)~~------
G--12-10-9-------10------------------------------------------------------------
D-------------12------------------------------
D----------12---------------------------------
E-------------------------------------------
.....
E-10-------------------------------12-13-12h13p12------------------------------
B----13-10-------------------10-13----------------13^(15)^13p10----13^(15)----
G----------12^(14)^12p10\9~~--------------------------------------------------
..... rake
E--10----------------------------------------12-13-13/15~~-15^(17)^15p13------
B-----13p10-------------------------------13------------------------------15--
G-----------12^(14)^12p10h12~~---------14-------------------------------------
D-----------------------------------14----------------------------------------

E-13~~-19^(20)~~\--10-----------------------------------------------------------
B-------------------------------------------------------------------------------
G---------------------12^(14)^12p10----10h12------------------------------------
D-----------------------------------12----------10h12p10----10------------------
A--------------------------------------------12----------12----12p10\8-10-8-----
E-----------------------------------------------------------------------------
E-------10-\--------------------------------------------------
B-------10-\--------------------------------------------------
G-------10-\--------------------------------------------------
D-------12-\----------------------------------------------------
A-------12-\---------------------------------------------------
E--10-8/10-\-------------------------------------------------------

(organ solo)
Dm
Got a black magic woman
Am
Got a black magic woman
Dm
Yes i've got a black magic woman
Gm
Got me so blind i can't see
Dm
That she's a black magic woman
Am Dm
Got the devil on me

Bass lines
Dm Am Dm Gm
G| ------5-5-7-5-- | ---------------- | ------- | ---------------- |
D|.----7----------.|.-------5-5-7-5--.|.-------.|.--------3-3-5-3-.| then
A|.-5-------------.|.-----7----------.|.-------.|.------5---------.| Dm Am Dm
E| --------------- | --5------------- | ------- | ---3------------ |

Solo

E-------10--------------13h12-10-------------------------------------12~~p13h12-
B---13^----13^(15)^h10-----------(15)^13h10---------------------10p13-----------
G-------------------------------------------(14)^-12h10\9--9/10-----------------
E---------13^(15)-15^(17)^15h13p15^(17)-13~~--19^(20)~~\--12p13h12---12p13h12--
B-13^(15)---------------------------------------------------------13-----------
G------------------------------------------------------------------------------
E---------10-------------------------------------------------------------------
B-13^(15)----13p10-----------------10--10-13p10--------------13^(15)-15^(17)---
G-----------------12^(14)^12p10----10-----------(14)^12p10---------------------
D-------------------------------12--------------------------------------------
slow bend
E-----------------------------10------------------------------------------------
B-13^(15)~~~---------------13^---13p10-------------------------13^(15)-13^(15)~~
G-----------(14)^12^(14)~~-------------12^(14)^12p10\9~----14-------------------
D--------------------------------------------------------14---------------------
E------------10-------------------10-12-13^(15)~~-15^(17)-19^(20)-20^(22)\----
B-(15)^13p10-13^(15)------------11--------------------------------------------
G--------------------10-10~~--12----------------------------------------------
E----------10-----10------10-13p10h13p10--------------------------------------
B----10h13---10h13---10h13--------------13p10h13p10---------------------------
G-12^-----------------------------------------------12p10h12p10---------------
D---------------------------------------------------------------12p10-12------
E----------------------------------------------------------
B----------------------------------------------------------
G---------------------9--10~~------------------------------
D------------10--12----------------------------------------
A-10-11-12-------------------------------------------------
E----------------------------------------------------------
got your spell on me babe


Date: Wed, 12 Mar 1997 15:32:52 -0800
From: Ryan Izzo <izzo@4Link.Net>
Subject: TAB: Black Magic Woman by Santana
"Black Magic Woman"
by Santana
off of Santana's Greatest Hits
as tabbed by Ryan Izzo <izzo@k-net.net>
corrections made from tablature by foucara8@cti.ecp.fr (FOUCART Adrien)
(CD time in parenthesis)
I made a few changes to a few of the first phrase but it really makes a
big difference to the entire quality of the piece...I hope i've made
Carlos happy...
h = hammer on p = pull off
b = bend r = release bend
\ = slide ~ = let ring
Intro:
e|--------------------------------------------------------------------------------|
B|--8p6~~~~-----------6h8p6~~~~-8----------10--8--6\5~~--8--6--5/3~~--10--8--6\5~~|
G|----------7/9\7~~~~-------------7/9\7~~-----------------------------------------|
D|--------------------------------------------------------------------------------|
A|--------------------------------------------------------------------------------|
E|--------------------------------------------------------------------------------|
e|------------------10------|--------------------------------|----------10--------|
B|--8--6-5--------10--------|--13b15-13-13b15-10-13b15~~~~~--|--13b15~~----13-10--|
G|--------------10----------|--------------------------------|--------------------|
D|------------12------------|--------------------------------|--------------------|
A|----------12--------------|-(0:41)-------------------------|--------------------|
E|--------10----------------|--------------------------------|--------------------|
e|-----------------|-------12-13-12h13p12---------|--------10----------------------|
B|-----------------|-10-13----------------13b15~~-|-13b15~~---13p10----------------|
G|-12b14r12p10\9~~-|------------------------------|-----------------12b14r12p10h12-|
D|-----------------|------------------------------|--------------------------------|
A|-----------------|------------------------------|--------------------------------|
E|-----------------|------------------------------|--------------------------------|
e|--------12-13-13/15~~-15b17r15p13------13~~-19
b20~~\\\\10----------------------|
B|------13----------------------------15------------------------------------------|
G|----14-----------------------------------------------------12b14r12p10----10h12-|
D|--14-------------------------------------------------------------------12-------|
A|--(rake)------------------------------------------------------------------------|
E|--------------------------------------------------------------------------------|
e|-------------------------------------10\--|
B|-------------------------------------10\--|
G|-------------------------------------10\--|
D|----10h12p10----10-------------------12\--|
A|-12----------12----12p10\8-10-8------12\--|
E|--------------------------------10-8/10\--|
الرجوع الى أعلى الصفحة اذهب الى الأسفل
معاينة صفحة البيانات الشخصي للعضو
sine_bi
مشرف منتدى كوردات ونوتات القيتار


ذكر
عدد الرسائل : 555
العمر : 31
البلد : المغرب
الوظيفة : هههههه
علم بلدك :
المزاج :
اوسمة :
تاريخ التسجيل : 02/04/2008

مُساهمةموضوع: رد: مجموعة كوردات اغاني santana   الثلاثاء يوليو 15, 2008 3:01 pm

Maria Maria" by Santana

First Verse: Acoustic
e------7-8-7-7--/-------7-8-7-8-9-8-7-8-7-8-7-------/-------
B---10----------/----10-----------------------10-10-/-----5-
G-9-------------/--9--------------------------------/-5-7---
e----------------------------/-------------5-8-5------------
B-----5-8-6-5-------5--------/---------5-6-------6-5---5-6--
G-5-7---------7-5-7----------/-------7---------------7------
e----------------------------/------------------------------
B-------5-8-6-5-6-5---5------/------------------------------
G---5-7-------------7--------/-----------4-7-5-4-5-4-5-4----
D-7--------------------------/------------------------------
e-------5---7---8---10-12-12-12-13/12-13-12-15-13-12-12-13--
B-----5---5---5---5---------------/-----------------------15
G-5-7-----------------------------/-------------------------
e-----7-8-7-10-7-8-8-7-7----/----------/--------------------
B---10------------------10--/----------/------5-8-6-5-6-5---
G-9-------------------------/--9-10-9—-/--5-7-------------7-
First Chorus: Electric
e-12------12-13-12---------12------12-17-12-----------------
B------------------13--13-------------------13--13----------
G--------------------14-----------------------14------------
e-12---12----12-13-12-------12-12-12--12-12-12--12-12---10--
B---15---------------13---13---13-13--13-13-----13-13-13--10
G----------------------14-----------------------------------
Second Verse: Acoustic
e---5---5-------------------/-----------------------5-------
B-5---5---------------------/---------------------5---------
Chanting Interlude
Third Verse: Acoustic
e------------------------/-----------7-7-8-8-7-10-10-8-7----
B-----5-6-5-8-8-6-6-5----/-----10-10---------------------10-
G-5-7--------------------/---9------------------------------

e---------------/---------------/-------------7-7-8-8-10-10-
B-----6-8-8-6---/---------------/-----10-9-10---------------
G-7-9-----------/---9-7-9-------/---------------------------
e-10-10-10--------------------------10--
B---------10-10-------------------10----
G--------------10----7---7-9-10-10------
D----------------------7----------------
e-12-15-15-13-12---------12-12---------
B----------------15-13-15-----13-10-10-
e---7-10-8-10-8-7---7---7
B-8--------------10---10-
Second Chorus: Electric
e-12------12-13-12---------12----12------12-13-12-----------B-----------------
13----13----15-----------------13---13----
G--------------------14-----------------------------14------
e-12---12---12-17-12-----------12—12-12-12-12-----10--------
B---15--------------13-----13--------13-13-13---13--10-10-13
G-----------------------14----------------------------------
Fourth Verse: Electric
e---5---5---5-5
B-5---5---5----
Chanting Interlude
Fifth Verse: Acoustic
e------------------/---------------/------------------------
B------------------/---------------/----5-6-5------5--------
G-----4-5-4-5-4----/----5-5-5-7----/----------7-5-7---------
D---7--------------/---------------/------------------------
A-7----------------/---------------/------------------------
e-------------------------------5-7-8-7-5-------
B-----5-5-----5---------------5-----------5-5-5-
G-7-5-----5-----5-5-------4-5-------------------
D-----------7-------7---7-----------------------
A---------------------7-------------------------
B---8-8-8-6-6-5---5-----/-----7-----
G-7-------------7---7-7-/-5-7---7-7-
e---5-5-5-7-7-8-8-10-10-/-10-10-12-10---10-
B-----------------------/-------------13---
G-5---------------------/------------------
e-------12------12------12-12-12----------/---------
B-10-13---10-13---10-13----------13-13-10-/---------
G-----------------------------------------/-7-5-7-7-
e-7-8-7-----------------
B-------8-5-------------
G-----------7-7-5-7-9-7-
Electric:
e------12-12-----12-12-----12-12-12---10-----
B-10-13-----10-13-----10-13---13-13-13---10--
G--------------------------------------------
/…………………………\(hold full bend)
e-15bf-15-15-15-15-12-15-12---12---12-12-12-12-15-12---12-12—--10------
B--------------------------15---15------------------15-13-13-13---10---
e--------------------12------------------------
B------12-13-12-15-12---15-13-12-13-12---------
G-12-14-------------------------------14-12-14-
Third Chorus: Electric
e-12-------13-12---------12------12-13-12-------------
B---------------13---13--------------------13---13----
G-----------------14-------------------------14-------
e-12----12------12-13-12--------12---12---12-17-12--------
B----15-----------------13---13---15---------------13---13
G--------------------------14-------------------------14—
Outro: Electric (fading out)
e-----12-12--------12-12-12-------------
B---13-----13--------------13--------13-
G-14---------14--------------14-14-14---
e-12------12-13-12---------12---12-----12-17-12-------------
B------------------13--13----15----------------13---13------
G--------------------14--------------------------14---------
e-12------12-13-12---------12---12-----12-17-12-------------
B------------------13--13----15----------------13---13------
G--------------------14--------------------------14---------
Acoustic (simultaneously):
e---------10-12-
B-13-12-13------
الرجوع الى أعلى الصفحة اذهب الى الأسفل
معاينة صفحة البيانات الشخصي للعضو
 
مجموعة كوردات اغاني santana
استعرض الموضوع السابق استعرض الموضوع التالي الرجوع الى أعلى الصفحة 
صفحة 1 من اصل 1

صلاحيات هذا المنتدى:لاتستطيع الرد على المواضيع في هذا المنتدى
منتدى قيتارة :: قسم القيتار :: كوردات القيتار ونوتات القيتار-
انتقل الى: