دروس+القيتار+ و+نوتات+و+فديو+غيتار+كوردات+تعليم
 
الرئيسيةس .و .جبحـثالتسجيلالمجموعاتدخول

شاطر | 
 

 مجموعة كوردات اغاني فرقة metallica

استعرض الموضوع السابق استعرض الموضوع التالي اذهب الى الأسفل 
كاتب الموضوعرسالة
sine_bi
مشرف منتدى كوردات ونوتات القيتار


ذكر
عدد الرسائل : 555
العمر : 31
البلد : المغرب
الوظيفة : هههههه
علم بلدك :
المزاج :
اوسمة :
تاريخ التسجيل : 02/04/2008

مُساهمةموضوع: مجموعة كوردات اغاني فرقة metallica   الثلاثاء يوليو 15, 2008 2:44 pm

1"Fade To Black"
Fade to Black
by Hetfield, Ulrich, Burton, and Hammett
as performed on Ride the Lightning

1)
e--------------------------------------------------------------------
B--------------------------------------------------------------------
G------0----------------0----------------0----------------2----------
D----4---4---4---4----4---4---4---4----4---4---4---4----2---2---2---2
A--2-------2---5----0-------0---5----2-------2---5----4-------4---0--
E--------------------------------------------------------------------
intro

2)
e------------------------------------------------
B--------------------------------------------0--3
G--------------------------------1--------1------
D--------0-----------2--------2--------2---------
A-----3-----------2-----2--2--------2------------
E--1--------1--4---------------------------------
after the intro before the main verse riff

3) pick style
e--------------0----------------0-------3--------3----------------
B--0-h1---------------1-1--1----------0-3--3-----------------0-1/3
G--2-----2--------0h2---0---------0h2---0-----0-----0h2p0----0-2/4
D--2--------2-----------2-----2---------0-----------------2-------
A--0--------------------3---------------2-----------------2-------
E---------------------------------------3-----------------0-------
main verse
3) finger style
e--------------0----------------0----------------3----------------
B--0-h1---------------1-1--1----------0-3--3-----------------0-1/3
G--------2--------0h2-------------0h2---------0-----0h2p0----0-2/4
D-----------2-----------------2---------------------------2-------
A--0--------------------3---------------------------------2-------
E---------------------------------------3-----------------0-------
main verse

4a)
D----------2-2-2----------5-5-5----------2-2-2--7--9
A----------0-0-0-------5--3-3-3-------5--0-0-0--5--7
E--0-0-0-0-------0-0-3----------0-0-3---------------
pm........ ..... .......
4b)
D----------2-2-2----------5-5-5----------2-2-2---------
A------5-3-0-0-0-------5--3-3-3-------5--0-0-0--5--4--2
E--0-0-----------0-0-3----------0-0-3-----------3--2--0
....... ..... .......
Crunch riff

5)
G--7/9--9--9--7/9--9/12-11--7--7-7-----------------------------4
D--7/9--9--9--7/9--9/12-11--7--7-7--9-9-9--7-7-7--5-5-5--4-4-4--
A--5/7--7--7--5/7--7/10-9---5--5-5------------------------------
E---------------------------------------------------------------

6)
G---------------------------------------------------------------4
D----------9---------12-11--------7--9-9-9--7-7-7--5-5-5--4-4-4--
A----------7---------10-9---------5------------------------------
E--0-0-0-0---0-0-0-0------0-0-0-0--------------------------------
pm....... ....... .......

7a)
G------------------------------------------
D-----4--5--4--2-----------4--5--4--2------
A--2-------------5-4-2--0-------------5-4-2
E------------------------------------------
closing riff (crunch)
7b)
G--------------------------------2---------
D-----4--5--4--2-----------4--5-----5-4-2-0
A----------------5-4-2--0------------------
E--3---------------------------------------
closing riff cont

--------------------------------------------------------
intro solo
1)
e-----------------------7--------
B------7----7-8-10-8-10---10-8-10
G----7---------------------------
D--9-----9-----------------------
A--------------------------------
E--------------------------------

2)
e--7--------------------------------------------------
B----10-8-7-8-7---7-8-7---7------------------8-7--7-10
G---------------9-------9-----------7-6--7-6----------
D---------------------------8-7-9~~-------------------
A-----------------------------------------------------
E-----------------------------------------------------

3)
e-----14-19-14-------14---------------------
B--15----------15-------15------------------
G-----------------16-------16-14-14h16p14---
D-----------------------------------------14

4)
e-----------------------------------------19-17-15~~
B--------------14-15-14h15p14----14-----------------
G--------14-16----------------16----16-14-----------
D--14-16--------------------------------------------

5)
e--14-15-14--------14-15-14--------14-15-14----17-15-14-15-14-15-14
B-----------15--------------15--------------15---------------------
G--------------16--------------14----------------------------------
D------------------------------------------------------------------

6)
e-------------------------------12-13-15-12h15p12-17~~~
B-------------------10-12-13-15------------------------
G---------7-9-10-12------------------------------------
D--7-9-10----------------------------------------------

Middle solo:
1)
e------------------------------------------
B--10--10-12-13--15-13-12------------------
G-------------------------12-14-12--14-12-9
D------------------------------------------
^ ^ ^
2)
e-------------------------------
B-----------------12-13-15-15-15
G--9-11-12-14--14---------------
D-------------------------------
الرجوع الى أعلى الصفحة اذهب الى الأسفل
معاينة صفحة البيانات الشخصي للعضو
sine_bi
مشرف منتدى كوردات ونوتات القيتار


ذكر
عدد الرسائل : 555
العمر : 31
البلد : المغرب
الوظيفة : هههههه
علم بلدك :
المزاج :
اوسمة :
تاريخ التسجيل : 02/04/2008

مُساهمةموضوع: رد: مجموعة كوردات اغاني فرقة metallica   الثلاثاء يوليو 15, 2008 2:45 pm

2:

Fixxxer
written by Hetfield, Ulrich, and Hammett
as performed on ReLoad
tab by Phil Boyle and Joker; ibzrg470@apk.net

tune all guitars down 1/2 step
1/2
1) ^
eb--14----
Bb--15--15
Gb------14
Db--------
Ab--------
Eb--------
This is that noise that happens all through the song. Kirk uses the
trem to bend it up a half step, but if you don't have one, just slide
up one fret. It alternates one to the other.

2)
Gb----------------------- -------------------- ----------------
Db-------7-5-------5h7-5- twice ------5---x-x--x-x-x twice ----------------
Ab--5h7~~-----5h7~~------ then -5h7----7-x-x--x-x-x then -5h7-3h5-2h3-0h2
Eb----------------------- -------------------- ----------------
with wah no wah

3)
Db---------------------------------4-5-7
Ab------7-5-7--------8------7-5-7------5
Eb--0-0--------6-5-6----0-0-------------

4)
Gb----------4----------4----------4----------2
Db--4-5-4-2-2--4-5-4-2-2--4-5-4-2-2--4-5-4-2-0
Ab--------------------------------------------
Eb--------------------------------------------
verse
"Dolls of voodoo stuck with pins."

5)
Gb--------------------------------------------
Db----------7----------7----------7----------5
Ab--7-8-7-5-5--7-8-7-5-5--7-8-7-5-5--7-8-7-5-3
Eb--------------------------------------------
verse
"So you lay us in a line"

6a) distorted
^ ^
Db---------5h7-5-7-5--------5h7-5-7-5-7------5h7-5-7-5-5--4
Ab--2--5h7-----------5--5h7-----------5--5h7-----------3--2
Eb--0----------------3-------------------------------------
6b) clean
eb---------------------------------------------
Bb--------3--------3---------------------------
Gb------0--------0--------7--------5--------4--
Db----2--------2--------7---7----5---5----4---4
Ab--------------------5--------3--------2------
Eb--0--------3---------------------------------
chorus
"Can you hear what father's done"

7)
Gb-------7---------7-----------------------------
Db--7-9--5-9--7-9--5-9-------5-------------------
Ab--5-7----7--5-7----7--5-7----7--5h7-3h5-2h3-0h2
Eb-----------------------------------------------
pre solo

Cool
Gb-------------------------------1-2--
Db------2-4-2-------5------2-4-2-----4
Ab------------2-3-2------------------4
Eb--2-2----------------2-2-----------2
begining of solo then back to 2)

9)
Db-------2---------2-----
Ab--2-4--0-4--2-4--0-4--2
Eb--0-2----2--0-2----2--0
end of solo

10)
eb----------------------
Bb--------3-------------
Gb------0---------------
Db----2----------5-7-7-5
Ab-----------5-7--------
Eb--0-------------------
verse after the solo (keep repeating.
الرجوع الى أعلى الصفحة اذهب الى الأسفل
معاينة صفحة البيانات الشخصي للعضو
sine_bi
مشرف منتدى كوردات ونوتات القيتار


ذكر
عدد الرسائل : 555
العمر : 31
البلد : المغرب
الوظيفة : هههههه
علم بلدك :
المزاج :
اوسمة :
تاريخ التسجيل : 02/04/2008

مُساهمةموضوع: رد: مجموعة كوردات اغاني فرقة metallica   الثلاثاء يوليو 15, 2008 2:46 pm

3:

Low Man's Lyric
written by: Hetfield and Ulrich
as performed on ReLoad
tab by Phil Boyle; ibzrg470@apk.net

tune all guitars down 1/2 step
1)
eb----0--------0--------0-------0-----0-
Bb-----2--------3--------3-------0-----0
Gb------2--------0--------2-------------
Db-------------------0------------------
Ab--0-----------------------------------
Eb----------3-----------------0-----3---
verse
"My eyes see reality, my fingers seek my veins."
The main thing to remember about this song is even though it might
change the notes, the basic chord pattern for this part is the same
A G D E G A

2)
eb-----------------3/5\3----2h3p2----0----3---
Bb--------2h3p2----3/5\3----3--------0----3---
Gb------2-----------------2------------------2
Db----2-------------------0------------------2
Ab--0----------------------------------------0
Eb---------------3-----------------0----3-----
"I fall because I let go."
See? A G D E G A

3)
eb--0-0-0-0-0--0-0-0-0--------- -0-0-0-0--3-3-3--0-0-0---------
Bb--1-1-1-1-1--0-0-0-0--------- -1-1-1-1--3-3-3--1-1-1---------
Gb--2-2-2-2-2--0-0-0-0--------- three -2-2-2-2--0-0-0--0-0-0--4-4-4-4
Db--2-----2-2--2-----2--------- times -2-----2--0-0-0--2-2-2--4-4-4-4
Ab--0----------2-----2------0-2 then -0-----0--2-2-2--3-3-3--2-2-2-2
Eb-------------0-----0--0-3---- ----------3-3-3----------------
"The trash fire is warm"
Ok this is A E then A G C B

4)
eb------------------------------------
Bb------------------------------------
Gb-------------4-4-4-4-4-4-4-4-4-4-4-4
Db-------------4-4-4-4-4-4-4-4-4-4-4-4
Ab--0-2-3-2-0--2-2-2-2-2-2-2-2-2-2-2-2
Eb------------------------------------
"Please forgive me"

5)
eb--0---------------3-3/5\3-2-2-2-2-3-2h3p2--------5-7-5-4-5
Bb--2-2-2-3-2h3p2---3-3/5\3-3---------------3--5-8----------
Gb--2-------------2-0-------2-------------------------------
Db--2---------------0-------0-------------------------------
Ab--0---------------2---------------------------------------
Eb------------------3---------------------------------------
solo-ish thing

6)
eb-----------------------------------
Bb--------1---------0----------------
Gb------2---2-----2---2-----2-0-2-4-2
Db-----------------------------------
Eb--0---------0----------------------
Eb----3---------2--------1-----------
"So low the sky is all I see."
الرجوع الى أعلى الصفحة اذهب الى الأسفل
معاينة صفحة البيانات الشخصي للعضو
sine_bi
مشرف منتدى كوردات ونوتات القيتار


ذكر
عدد الرسائل : 555
العمر : 31
البلد : المغرب
الوظيفة : هههههه
علم بلدك :
المزاج :
اوسمة :
تاريخ التسجيل : 02/04/2008

مُساهمةموضوع: رد: مجموعة كوردات اغاني فرقة metallica   الثلاثاء يوليو 15, 2008 2:47 pm

4:

Mama said
written by Hetfield and Ulrich
as performed on Load
Tab by Peter 'Justice' Glantschnig
e-mail me with corrections at justice@ping.at
Accustic Guitar
Main Riff
D C A
Eb---1--1-1-1-3--3-3-1--1-1--0--0-0--0--0-0-0-0--0-0-0--0-
Bb---3--3-3-3-3--3-3-3--3-3--1--1-1--1--1-1-1-3--3-3-1--1-
Gb---2--2-2-2-2--2-2-2--2-2--0--0-0--2--2-2-2-2--2-2-2--2-
Db---0--0-0-0-0--0-0-0--0-0--2--2-2--2--2-2-2-2--2-2-2--2-
Ab---0-----------------------3--3-3-----------------------
Eb--------------------------------------------------------
let my heart go......
Eb---1-------0-------0-------3--3-3-3--3-3-3-----
Bb---3-------1-------1-------3--3-3-3--3-3-3-----
Gb---2-------0-------2-------0--0-0-0--0-0-0-----
Db---0-------2-------2-------0--0-0-0--0-0-0-----
Ab---0-------3-------0-------2--2-2-2--2-2-2-----
Eb---------------------------3--3-3-3--3-3-3-----

Riff A1
let this heart be still Yeah,still
Eb---1------0---------------3-------------------------------
Bb---3------1---------------3-------------------------------
Gb---2------0-------3-------0-------2-----------------------
Db---0------2-------3-------0-------2-----------------------
Ab---0------3-------1-------2-------0-----------------------
Eb--------------------------3-------------------------------
then go back to the main riff

never I ask of you.....
Eb---1--1-1-1---3--3-3-3--0--0-0-0--1--1-1-1------------
Bb---3--3-3-3---3--3-3-3--1--1-1-1--1--1-1-1------------
Gb---2--2-2-2---0--0-0-0--0--0-0-0--2--2-2-2-----Riff A1
Db---0--0-0-1---0--0-0-0--2--2-2-2--3--3-3-3------------
Ab--------------2--2-2-2--3--3-3-3--3--3-3-3------------
Eb--------------3--3-3-3------------1--1-1-1------------

again the main riff

In the end they play this riff
Eb---1-----0-----0-----1--1-1-1-3--3-3--1-----------
Bb---3-----1-----1-----3--3-3-3-3--3-3--3-----------
Gb---2-----0-----2-----2--2-2-2-2--2-2--2----Riff A1
Db---0-----2-----2-----0--0-0-0-0--0-0--0-----------
Ab---0-----3-----0-----0--0-0-0-0--0-0--0-----------
Eb--------------------------------------------------
the once more the 'never I ask of you' riff and at the very
end again Riff A1.
الرجوع الى أعلى الصفحة اذهب الى الأسفل
معاينة صفحة البيانات الشخصي للعضو
sine_bi
مشرف منتدى كوردات ونوتات القيتار


ذكر
عدد الرسائل : 555
العمر : 31
البلد : المغرب
الوظيفة : هههههه
علم بلدك :
المزاج :
اوسمة :
تاريخ التسجيل : 02/04/2008

مُساهمةموضوع: رد: مجموعة كوردات اغاني فرقة metallica   الثلاثاء يوليو 15, 2008 2:49 pm

5::

Nothing Else Matters

6/8 time
E-------0-----|-------0-----|-------0-----|-------0---7-|
B-----0---0---|-----0---0---|-----0---0---|-----0---0---|
G---0-------0-|---0-------0-|---0-------0-|---0---------|
D-------------|-------------|-------------|-------------|
A-------------|-------------|-------------|-------------|
E-0-----------|-0-----------|-0-----------|-0-----------|
P (9/8 time) H P S S P
E-7-----------7^0---------|---------7---8---7^8^7\5-7---5\2^0---|
B-----0-----------0-------|---------0---0-----------0-----------|
G---------0-----------0---|-----0-------------------------------|
D-------------------------|-------------------------------------|
A-------------------------|-------------------------------------|
E-0-----------------------|-0-----------------------------------|
P
E-------------2^0---------|-------------0---0---0---|
B-5-------5-------5-------|---------5-------5---5---|
G-----5---------------5---|-----5-----------5---5---|
D-------------------------|-------------------------|
A-0-----------------------|-0---------------0---2---|
E-------------------------|-------------------------|
P H P P H
E-0-----------3^0-----0---|-0-----------0^5^0--------|
B-5-------5-------5---5---|-7-------7---------7^0-0^5|
G-5-----5---5-------5-5---|-7-----7---7--------------|
D-------------------------|--------------------------|
A-3---3---------------3---|-5---5--------------------|
E-------------------------|--------------------------|
<.NH.>
E-------12----|-------0-----|-------0-----|-------0-----|
B-----12--0---|-----0---0---|-----0---0---|-----0---0---|
G---12------0-|---0-------0-|---0-------0-|---0-------0-|
D-------------|-------------|-------------|-------------|
A-------------|-------------|-------------|-------------|
E-0-----------|-0-----------|-0-----------|-0-----------|

E-------------7-----------|-------------|-------------7-----------|
B-------------8-----------|-----7-----5-|-------------8-----------|
G-----------9-------------|-----7-----5-|-----------9-------------|
D---------9---------------|---7-----5---|---------9---------------|
A-------7-----------------|-5-----3-----|-------7-----------------|
E-0-----------------------|-------------|-0-----------------------|

E-------------|-------------7-----------|-----5-----------3-------|
B-----7-----5-|-------------8-----------|-------7-----------5-----|
G-----7-----5-|---------9---------------|---------7-----------5---|
D---7-----5---|-----------9-------------|-----7-----------5-------|
A-5-----3-----|-------7-----------------|-5-----------3-----------|
E-------------|-0-----------------------|-------------------------|
E-----3-----------2-------|-------0-----|-------0-----|
B-------3-----------4-----|-----0---0---|-----0---0---|
G---------4-----------2---|---0-------0-|---0-------0-|
D-----5-----------4-------|-------------|-------------|
A-------------2-----------|-------------|-------------|
E-3-----------------------|-0-----------|-0-----------|
Main guitar part :
E-------------3-----0-----|-2-----3-----0-----------|
B---------0-----------0---|---------3-------3-------|
G-----0-----------0-----0-|-----------0-------0-----|
D-------------------------|-0-----------------------|
A-------------------------|-------------3-----------|
E-0-----------------------|---------------------3-2-|
E-------------3-----0-----|-2-----------------------|
B---------0-----------0---|-------3-----3-----------|
G-----0-----------0-----0-|---------2-------0-------|
D-------------------------|-0-----------------------|
A-------------------------|-------------3-----------|
E-0-----------------------|---------------------3-2-|
E-------------3-----0-----|-2-----3-----3-----------|
B---------0-----------0---|---------3-------3-------|
G-----0-----------0-----0-|-----------0---------0---|
D-------------------------|-0-----------------------|
A-------------------------|-------------3-----------|
E-0-----------------------|-------------------------|
E---------3---2-----2-----|-0-----0-----|-------------0-----------|
B---------3---0-----0-----|-0---0---0---|---------0-------0-------|
G-----0-------2-----2-----|---0-------0-|-----0-------------------|
D-------------------------|-------------|-------------------------|
A-------------2-----2-----|-------------|-------------------------|
E-3-----------------------|-0-----------|-0-------------------3-2-|
Chorus guitar part
1 2 3 4 5 6
E-------------|-2-----2-2-2-3---2-0-0-2-|
B-1-----2-----|-3-----3-3-3-3---3-3-3-3-|
G-0-----2-----|-2-----2-2-2-2---2-2-2-2-|
D-2-----2-----|-0-----0-0-0-0---0-0-0-0-|
A-3-----0-----|-------------------------|
E-------------|-------------------------|
E-------------|-2-----2-2-2-3---2-0-0-2-|
B-1-----2-----|-3-----3-3-3-3---3-3-3-3-|
G-0-----2-----|-2-----2-2-2-2---2-2-2-2-|
D-2-----2-----|-0-----0-0-0-0---0-0-0-0-|
A-3-----0-----|-------------------------|
E-------------|-------------------------|
E-------------|-2-----2-2-2-0-----------|
B-1-----2-----|-3-----3-3-3-0-----------|
G-0-----2-----|-2-----2-2-2-0-----------|
D-2-----2-----|-0-----0-0-0-2-----------|
A-3-----0-----|-------------2-----------|
E-------------|-------------0-----------|
Interlude, only one part is notated.
E-12----14----|-15----17----|-8-----8-----|-------8-----|-0-------0---|
B---12----12--|---12----12--|---5-----5---|-----5---5---|---1-------1-|
G-------------|-------------|-----5-----5-|---5-------5-|-----0-------|
D-------------|-------------|-------------|-------------|-------------|
A-------------|-------------|-------------|-------------|-------------|
E-------------|-------------|-------------|-------------|-------------|

E-0-------0---|-0-0---------0-0---------|-------0-----|
B---3-------3-|-----0-----------0-------|-----0---0---|
G-----2-------|---------0-----------0---|---0-------0-|
D-------------|-------------------------|-------------|
A-------------|-------------------------|-------------|
E-------------|-------------------------|-------------|
Guitar solo :
E5 E5(VII) | D5(V) C5(III)
E5 E5(VII) | D5(V) C5(III)
E5 E5(VII) | D5(V) C5(III) | G5(III) B5(II) | E5
B B R V V
E---------------------------|-------------------------------------|
B-15------15----------------|-------------------------------------|
G-14(16)--14(16)14-12----12-|-11-12-11----11-------------12-14-12-|
D---------------------------|----------14----12-14----------------|
A---------------------------|-------------------------------------|
E---------------------------|-------------------------------------|
B B B R V
E-------12-------12-------------------|---------------------------|
G----12-------12----15-12----12-------|------------14----14-13----|
G-14(16)---14(16)---------15----15-14-|-12(14)12---14----14-13-12-|
D-------------------------------------|---------14----------------|
A-------------------------------------|---------------------------|
E-------------------------------------|---------------------------|
S H P S V
E-/15-14----15-14-17-|-15----14^15^14\12----15-14-|---------------
B--------12----------|-------------------12-------|-12------------
G--------------------|----------------------------|------12-14-12-
D--------------------|----------------------------|---------------
A--------------------|----------------------------|---------------
E--------------------|----------------------------|---------------
B R B B R P B
E-------------------------|-12----------------------------|-------
B-15-------------------12-|-------15-15(17)15^12-15(17)---|-------
G-14(16)14-12----12-14(16)|-------------------------------|-------
D-------------14----------|-------------------------------|-------
A-------------------------|-------------------------------|-------
E-------------------------|-------------------------------|-------
H P S H P
E-----------------|--------------
B-12^15^12\\\\\\7-|-5^7^5--------
G-----------------|--------------
D-----------------|--------------
A-----------------|--------------
E-----------------|--------------
The end :
E-0-----0-----|-------0---7-|-7-----------7^0---------|
B-----0---0---|-----0---0---|-----0-----------0-------|
G---0-------0-|---0---------|---------0-----------0---|
D-------------|-------------|-------------------------|
A-------------|-------------|-------------------------|
E-0-----------|-0-----------|-0-----------------------|
E---------7---8---7^8^7\5--7---5\2--0-|
B---------0---0------------0----------|
G-----0-------------------------------|
D-------------------------------------|
A-------------------------------------|
E-0-----------------------------------|
الرجوع الى أعلى الصفحة اذهب الى الأسفل
معاينة صفحة البيانات الشخصي للعضو
sine_bi
مشرف منتدى كوردات ونوتات القيتار


ذكر
عدد الرسائل : 555
العمر : 31
البلد : المغرب
الوظيفة : هههههه
علم بلدك :
المزاج :
اوسمة :
تاريخ التسجيل : 02/04/2008

مُساهمةموضوع: رد: مجموعة كوردات اغاني فرقة metallica   الثلاثاء يوليو 15, 2008 2:51 pm

6::

The Unforgiven
written by Hetfield, Ulrich and Hammett
as performed on Metallica
tab by Phil Boyle; ibzrg470@apk.net

e---------------------------
B--0-0-----0-----0-----1----
G------2-----2-----2-----2-- Repeat
D--------2-----2-----2-----2
A--0------------------------
E---------------------------
accoustic intro
e------------------------
B------------------------
G--2-4-5--5-4-2--2-4-5--2
D------------------------
A------------------------
E------------------------
still clean intro
e-----------------------------------------------------------
B--------------------------------------5-5-5-3--------------
G--2-4-5--5--5-5-4---4----2-4-2--2-4-5---------4-4-0-1/2-4-2
D--0---------------5---2--2------2--------------------------
A-----------------------------------------------------------
E-----------------------------------------------------------
chorus/intro
G----------------------12-12-11-11------
D--12-12-10-9-12p9-----0--0--0--0--10-10 twice
A--0--0--0--0-0--0-10--------------0--0-
E------------------0--------------------
pm......................................
crunch verse
G-------------------------------------------- twice --
D--10p0-----9p0-----7p0-----5p0-----5-------5 then -2
A-------0-0-----0-0-----0-0-----0-0-3-3h5p3-5 -2
E-------------------------------------------3 -0
pm.. ... ... ...
"falling" riff full
^ ^
G-------------------2-2-2-2---- -----
D--2-2-2-5----------0-0-0-0-2-2 twice -4--4 play twice then to
A--0-0-0-3-2-2--------------0-0 then ----- falling riff
E----------0-0--0-0------------ -----
pm..
solo riff
______________________________________________________________________
pre-solo (clean):
e-------------------------0-0-0-0-0-0-0-------------------------
B-------------------------0-1/3/5\3\1/3--8/10\8-7--5-3-----3----
G----4-5-7-4h5p4---4---------------------7/9-\7-7------5-4---4--
D--7-------------5---5-7---------------------------------------5
A---------------------------------------------------------------
E---------------------------------------------------------------
e---------------------
B---------------------
G----------------5----
D--------------5---5-7
A------3-5/6/7--------
E--3-5----------------
e-------------------------7-----10------12-------14-------15----17
B--8-8p7---7-8---7-8-10-8---8-8----8/10----10/12----12/14----14---
G--------9-----9--------------------------------------------------
D-----------------------------------------------------------------
A-----------------------------------------------------------------
E-----------------------------------------------------------------

Solo (distorted)
^ ^ ^
e-----------------------------------
B--7--7-----------------------------
G--7--7-5---------------------------
D---------7~~7-5--------------------
A----------------7-5-3-5-3-------0-3
E--------------------------5-3-0----
pm..............
AH AH AH
e----------------------------------10--------8--------10---
B-------------------7---7-8-7-8-10----10--10---10--10----10
G-----5-7-5-7/9-7-9---9------------------------------------
D--/7------------------------------------------------------
A----------------------------------------------------------
E----------------------------------------------------------
^ ^ ^ ^ ^ ^
e---------------20-20--20-17-20p17----17---
B--20-20--20-17--------------------20----20
G------------------------------------------
D------------------------------------------
A------------------------------------------
E------------------------------------------
e--7-9-10-9----9-----------------------------12------- (7 times)
B-----------10---8-7-5-7-5-3-1-3-1-0------13----13----
G------------------------------------2/14----------14-
D-----------------------------------------------------
A-----------------------------------------------------
E-----------------------------------------------------
^ ^ ^ ^ ^
e-----------------------17-19-20-19-17-19-17----17---------
B---------------20--20-----------------------20----20-17---
G--19-19--19-17------------------------------------------19
D----------------------------------------------------------
A----------------------------------------------------------
E----------------------------------------------------------
e------------------------------------
B------------20---17h18p17~~~17h18p17
G--19--19-17-------------------------
D------------------------------------
A------------------------------------
E------------------------------------
الرجوع الى أعلى الصفحة اذهب الى الأسفل
معاينة صفحة البيانات الشخصي للعضو
 
مجموعة كوردات اغاني فرقة metallica
استعرض الموضوع السابق استعرض الموضوع التالي الرجوع الى أعلى الصفحة 
صفحة 1 من اصل 1

صلاحيات هذا المنتدى:لاتستطيع الرد على المواضيع في هذا المنتدى
منتدى قيتارة :: قسم القيتار :: كوردات القيتار ونوتات القيتار-
انتقل الى: