دروس+القيتار+ و+نوتات+و+فديو+غيتار+كوردات+تعليم
 
الرئيسيةس .و .جبحـثالتسجيلالمجموعاتدخول

شاطر | 
 

 مجموعة كوردات اغاني ملك الروك ن رول cat stevens

استعرض الموضوع السابق استعرض الموضوع التالي اذهب الى الأسفل 
كاتب الموضوعرسالة
sine_bi
مشرف منتدى كوردات ونوتات القيتار


ذكر
عدد الرسائل : 555
العمر : 31
البلد : المغرب
الوظيفة : هههههه
علم بلدك :
المزاج :
اوسمة :
تاريخ التسجيل : 02/04/2008

مُساهمةموضوع: مجموعة كوردات اغاني ملك الروك ن رول cat stevens   الثلاثاء يوليو 15, 2008 2:37 pm

Father and Son

Piste 1
G C G C
E||---3------3-------3----5------||--3------3---------------|
B||---0----0---1-----------------||--0----0---1-------0--1--|
G||*-----0---------4----5-------*||-----0-------------------|
D||*-----------2-------------0--*||-----------2-------------|
A||------------------------------||-------------------------|
E||---3----3-3-------------------||--3----------------------|

G5 D Cadd9
--------------------------|-------------0------------|
--3---0-1-0-3--3----0--1--|--3----3-3-3--------------|
---------------2----------|-----------------0--0--2--|
--------------------------|---------2----------------|
--------------------------|--3--------3-0---3--0--3--|
--3---3--------2----2-----|-------0------------------|

D
--------------------------|--------------2-------------|
--0-----------0-----1--0--|--0----1-----------3--0--1--|
--------0--2--------------|-----2-----0--2-------------|
-----0--------------------|----------------0-----------|
--------2--3-----2-----2--|--0------0------------------|
--3-----------0-----0-----|----------------------------|

G5 D Cadd9
-------------------------|-------------0------------|------------------------|
--3----0-1--3-3----0--1--|--3----3-3-3--------------|--0----------0----1-0---|
--------------2----------|-----------------0--0--2--|---------0-2------------|
-------------------------|---------2----------------|------------------------|
-------------------------|--3--------3-0---3--0--3--|---------2--------------|
--3----3------2----2-----|-------0------------------|--3----------0----0-----|

G5 D
-------3-0-3-2--3-2-0---------||------------------------------|
----------------------3-0--1--||---3----1-0-1---3-------3---3-|
--0-2-------------------------||*---------------2-------2---2-|
------------------------------||*-----0-------0---0-------0---|
--0---------------------------||------------------------------|
------------------------------||---3------3-----2-------2---2-|

Csus2
--------------0-------------|--------------------------|
--3--3--3--3--------------0-|--0-----------0-----1--0--|
-----0-----0-----0--0-2-----|--------0--2--------------|
-----0-----0----------------|-----0--------------------|
--3-----3-----0--3--0---3---|--------2--3-----2-----2--|
----------------------------|--3-----------0-----0-----|

D D
----------------2--------------||------------------------------2----|
--0---1-------1------3--0--1---||--0------------0-0----1--0---------|
----2---2---0---2-------------*||-------2-0--2---------------2-2----|
------------------0-----------*||-----0--------------------------0--|
--0-------0--------------------||---------2--3------2-----2---------|
-------------------------------||--3------------0------0-----2------|

G C G C
---------3-------3----5-----|--3------3---------------|
-------0---1----------------|-------0---1-------0--1--|
--0--0---------4----5-------|-----0-------------------|
-----------2-------------0--|-----------2-------------|
----------------------------|-------------------------|
--3-------------------------|--3----------------------|

G5 D Csus2
---------0-----------------|-------------0------------|
--3----3----3-------0----1-|--3--3--3--3--------------|
-----0------2----------0---|-----0-----0----0---0--2--|
-----------------0---------|-----0-----0--------------|
---------------------------|--3-----3----0--3---0--3--|
--3---------2-------2------|--------------------------|


--------------------------|-----3-0-3-2--3-2-0----------|
--0-----------0-----1--0--|--------------------3---0-1--|
--------0--2--------------|--2--------------------------|
-----0--------------------|-----------------------------|
--------2--3-----2-----2--|--0--------------------------|
--3-----------0-----0-----|-----------------------------|

D Csus2
---------------------------|-------------0-----------|------------------------|
--3------0-1--3-3------0-1-|--3----3--3--------------|--0----------0----1-0---|
-------0--------2----------|-------0--------0--0--2--|---------0-2------------|
-----0---------------------|-------0-----------------|------------------------|
---------------------------|--3-------3--0--3--0--3--|---------2--------------|
--3-------------2----------|-------------------------|--3----------0----0-----|

G
------------------------|-----------------3------||
--0------------------0--|--3----3/1--1--0-0------||
------2-0-----0---------|-----------------0------||
------------0-----------|--0---------------------||
--2---------------------|------------------------||
------------------------|-----------------3------||
الرجوع الى أعلى الصفحة اذهب الى الأسفل
معاينة صفحة البيانات الشخصي للعضو
sine_bi
مشرف منتدى كوردات ونوتات القيتار


ذكر
عدد الرسائل : 555
العمر : 31
البلد : المغرب
الوظيفة : هههههه
علم بلدك :
المزاج :
اوسمة :
تاريخ التسجيل : 02/04/2008

مُساهمةموضوع: رد: مجموعة كوردات اغاني ملك الروك ن رول cat stevens   الثلاثاء يوليو 15, 2008 2:39 pm

الاغنية الثانية

How Can I Tell You

Cat Stevens


E||--0----------------|--5------------------|--0h-2---------2h-3----|
B||--0----------------|--5------------3--5--|--------3--------------|
G||--0----------------|--2------------------|--------2------2h-4----|
D||--2----------------|--2------------4--5--|--0--------------------|
A||--2----------------|--0------------------|-----------------------|
E||--0----------------|---------------------|-----------------------|


------------------|--2------0------------|---------------------0--|
------------------|--0------0-------3----|--2---------------3-----|
------------------|--2------0-------4----|--2---------2-----------|
------------------|-----------------4----|--2------2--------------|
------------------|----------------------|--0------------0--------|
------------------|--0---------0---------|------------------------|


-----------------2h-3----|--3------------3-------|--0--------0-------------|
--2h-3-----3-------------|--0------------0-------|-----0-------------------|
--------2--------2h-4----|-----------------------|--------0--------0-------|
--0-----------0----------|-------0----------0----|--------------------0----|
-------------------------|-----------------------|--------------2----------|
-------------------------|--3---------2----------|--0----------------------|


--0--------0-------------|-----------------2h-3----|--3--------3-------------|
-----2-----------2-------|--2h-3-----3-------------|-----0-----------0-------|
--------2-----------2----|--------2--------2h-4----|--------0-----------0----|
--------------2----------|--0-----------0----------|-------------------------|
--0----------------------|-------------------------|-------------------------|
-------------------------|-------------------------|--3-----------2----------|


--0--------0-------------|--0--------0-------------|--2----3----2----0----|
-----0-------------------|-----2-----------2-------|--3----0----3----3----|
--------0--------0-------|--------2-----------2----|--2----0----2----2----|
--------------------0----|--------------2----------|--0----0----0----0----|
--------------2----------|--0----------------------|----------------------|
--0----------------------|-------------------------|----------------------|


--3-----3---------------|--0--------0-------------|--0--------0-------------|
-----0----------0-------|-----0-------------------|-----2-----------2-------|
--------0---------------|--------0--------0-------|--------2-----------2----|
------------------------|--------------------0----|--------------2----------|
------------------------|--------------2----------|--0----------------------|
--3----------3-----2----|--0----------------------|-------------------------|


--2----3----2----0----|--3-----3---------------|--0--------0-------------|
--3----0----3----3----|-----0----------0-------|-----0-------------------|
--2----0----2----2----|--------0---------------|--------0--------0-------|
--0----0----0----0----|------------------------|--------------------0----|
----------------------|------------------------|--------------2----------|
----------------------|--3----------3-----2----|--0----------------------|


--0--------0-------------|--2----3----2----0----|--3-----3---------------|
-----2-----------2-------|--3----0----3----3----|-----0----------0-------|
--------2-----------2----|--2----0----2----2----|--------0---------------|
--------------2----------|--0----0----0----0----|------------------------|
--0----------------------|----------------------|------------------------|
-------------------------|----------------------|--3----------3-----2----|


--0--------0-------------|--0--------0-------------|--2----3----2----0----|
-----0-------------------|-----2-----------2-------|--3----0----3----3----|
--------0--------0-------|--------2-----------2----|--2----0----2----2----|
--------------------0----|--------------2----------|--0----0----0----0----|
--------------2----------|--0----------------------|----------------------|
--0----------------------|-------------------------|----------------------|


--3-----3---------------|--2----3----2----0----|--3-----3---------------|
-----0----------0-------|--3----0----3----3----|-----0----------0-------|
--------0----------0----|--2----0----2----2----|--------0---------------|
-------------0----------|--0----0----0----0----|------------------------|
------------------------|----------------------|------------------------|
--3---------------------|----------------------|--3----------3-----2----|


--0--------0-------------|--0--------0-------------|--2----3----2----0----|
-----0-------------------|-----2-----------2-------|--3----0----3----3----|
--------0--------0-------|--------2-----------2----|--2----0----2----2----|
--------------------0----|--------------2----------|--0----0----0----0----|
--------------2----------|--0----------------------|----------------------|
--0----------------------|-------------------------|----------------------|


--3-----3---------------|--3-----3---------------|--0--------0-------------|
-----0----------0-------|-----0----------0-------|-----0-------------------|
--------0---------------|--------0---------------|--------0--------0-------|
------------------------|------------------------|--------------------0----|
------------------------|------------------------|--------------2----------|
--3----------3-----2----|--3----------3-----2----|--0----------------------|


--0--------0-------------|--0h-2---------------||
-----2-----------2-------|--------3------------||
--------2-----------2----|--------2------------||
--------------2----------|--0------------------||
--0----------------------|---------------------||
-------------------------|---------------------||
الرجوع الى أعلى الصفحة اذهب الى الأسفل
معاينة صفحة البيانات الشخصي للعضو
sine_bi
مشرف منتدى كوردات ونوتات القيتار


ذكر
عدد الرسائل : 555
العمر : 31
البلد : المغرب
الوظيفة : هههههه
علم بلدك :
المزاج :
اوسمة :
تاريخ التسجيل : 02/04/2008

مُساهمةموضوع: رد: مجموعة كوردات اغاني ملك الروك ن رول cat stevens   الثلاثاء يوليو 15, 2008 2:41 pm

الاغنية الثالثة

Into White

Cat Stevens
Guitar


E||----------------|--------------------|--------------------|
B||----------------|-----------1--------|-----------3--------|
G||----------------|-----0-----------0--|-----2--------2-----|
D||----------------|--------2-----------|--------0-----------|
A||----------0--2--|--3-----------------|--0--------------0--|
E||----------------|--------------3-----|--------------------|


|---------------------|--------------------|--------------------|
|------------1--------|-----------3--------|-----------1--------|
|*-----0-----------0--|-----2--------2-----|-----0-----------0--|
|*--------2-----------|--------0-----------|--------2-----------|
|---3-----------2-----|--0--------------2--|--3-----------2-----|
|---------------------|--------------------|--------------------|


---------------------||--0-----------3-----|--2--------2--------|
-----------3---------||-----1-----1-----1--|-----3--------3-----|
-----2--------2-----*||--------0-----------|--------2--------2--|
--------0-----------*||--------------------|--0-----------------|
--0--------------2---||--3-----------------|--------------------|
---------------------||--------------3-----|--------------------|


--0-----0-----3-----|--2--------2--------|--0-----------3-----|
-----1-----1-----1--|-----3--------3-----|-----1-----1-----1--|
--------------------|--------2--------2--|--------0-----------|
--------------------|--0-----------------|--------------------|
--3-----------------|--------------------|--3-----------------|
--------------3-----|--------------------|--------------3-----|


--2--------2--------|--0-----0-----3-----|--2--------2--------|
-----3--------3-----|-----1-----1-----1--|-----3--------3-----|
--------2--------2--|--------------------|--------2--------2--|
--0-----------------|--------------------|--0-----------------|
--------------------|--3-----------------|--------------------|
--------------------|--------------3-----|--------------------|


-----------3--------|-----------0--------|-----------2--------|
-----0--------0-----|-----1--------1-----|-----3--------3-----|
--------0--------0--|--------0--------0--|--------2--------2--|
--------------------|--------------------|--0-----------------|
--------------------|--3-----------------|--------------------|
--3-----------------|--------------------|--------------------|


--3--------3--------|-----------0--------|--0--------0--------|
-----1--------1-----|-----1--------1-----|-----1--------------|
--------2--------2--|--------0--------0--|--------0-----------|
--------------------|--------------------|--------------2--0--|
--------------------|--3-----------------|--------------------|
--------------------|--------------------|--------------------|


-----------0--------|-----------3--------|--------------|--------------0-----|
-----1--------1-----|-----0--------0-----|--------------|--------0--------0--|
--------0--------0--|--------0--------0--|--2p-0--------|-----2-----2--------|
--------------------|--------------------|--------4--0--|--2-----------------|
--3-----------------|--------------------|--0-----------|--------------------|
--------------------|--3-----------------|--------------|--------------------|


-----------0--------||---0-----------3-----|--2--------2--------|
-----0--------------||------1-----1-----1--|-----3--------3-----|
--------1--------1--||*--------0-----------|--------2--------2--|
--2-----------0-----||*--------------------|--0-----------------|
--------------------||---3-----------------|--------------------|
--------------------||---------------3-----|--------------------|


--0-----0-----3-----|--2--------2--------|--0-----------3-----|
-----1-----1-----1--|-----3--------3-----|-----1-----1-----1--|
--------------------|--------2--------2--|--------0-----------|
--------------------|--0-----------------|--------------------|
--3-----------------|--------------------|--3-----------------|
--------------3-----|--------------------|--------------3-----|


--2--------2--------|--0-----0-----3-----|--2--------2--------|
-----3--------3-----|-----1-----1-----1--|-----3--------3-----|
--------2--------2--|--------------------|--------2--------2--|
--0-----------------|--------------------|--0-----------------|
--------------------|--3-----------------|--------------------|
--------------------|--------------3-----|--------------------|


-----------3--------|-----------0--------|-----------2--------|
-----0--------0-----|-----1--------1-----|-----3--------3-----|
--------0--------0--|--------0--------0--|--------2--------2--|
--------------------|--------------------|--0-----------------|
--------------------|--3-----------------|--------------------|
--3-----------------|--------------------|--------------------|


--3--------3--------|-----------0--------|--0--------0--------|
-----1--------1-----|-----1--------1-----|-----1--------------|
--------2--------2--|--------0--------0--|--------0-----------|
--------------------|--------------------|--------------2--0--|
--------------------|--3-----------------|--------------------|
--------------------|--------------------|--------------------|


-----------0--------|-----------3--------|---------------||-----------0--------|
-----1--------1-----|-----0--------0-----|---------------||-----0--------0-----|
--------0--------0--|--------0--------0--|--2p-0--------*||--------2--------2--|
--------------------|--------------------|--------4--0--*||--2-----------------|
--3-----------------|--------------------|--0------------||--------------------|
--------------------|--3-----------------|---------------||--------------------|


-----------0--------|-----------0--------|-----------0--------|---------------||
-----0--------0-----|-----0--------0-----|-----0--------------|---------------||
--------2--------2--|--------1--------1--|--------1--------1--|--2------------||
--2-----------------|--2-----------------|--2-----------0-----|---------------||
--------------------|--------------------|--------------------|---------------||
--------------------|--------------------|--------------------|---------------||
الرجوع الى أعلى الصفحة اذهب الى الأسفل
معاينة صفحة البيانات الشخصي للعضو
 
مجموعة كوردات اغاني ملك الروك ن رول cat stevens
استعرض الموضوع السابق استعرض الموضوع التالي الرجوع الى أعلى الصفحة 
صفحة 1 من اصل 1

صلاحيات هذا المنتدى:لاتستطيع الرد على المواضيع في هذا المنتدى
منتدى قيتارة :: قسم القيتار :: كوردات القيتار ونوتات القيتار-
انتقل الى: