دروس+القيتار+ و+نوتات+و+فديو+غيتار+كوردات+تعليم
 
الرئيسيةس .و .جبحـثالتسجيلالمجموعاتدخول

شاطر | 
 

 ماريا ماريا Maria maria Carlos Santana tabs

اذهب الى الأسفل 
كاتب الموضوعرسالة
monalisa
مراقبة عامة
مراقبة عامة
avatar

عدد الرسائل : 1296
تاريخ التسجيل : 10/09/2007

مُساهمةموضوع: ماريا ماريا Maria maria Carlos Santana tabs   الأربعاء أكتوبر 03, 2007 7:39 am

[center][center]Intro and verse: classical guitar
|------7-8-7-7---|
|---10-----------|
|-9--------------|
|----------------|
|----------------|
|----------------|
|---------8-7-10-8-7-8-7-8-7--------|
|---10-10--------------------10-----|
|-9---------------------------------|
|-----------------------------------|
|-----------------------------------|
|-----------------------------------|
|-------------|
|-------------|
|----7-9------|
|-10----------|
|-------------|
|-------------|
|---------------------------|
|--------8------------------|
|----7-9---10-9-7----7-9----|
|-10--------------10--------|
|---------------------------|
|---------------------------|
...maria maria
|--------------------------------|
|-------------12-----------------|
|----------14----14--------------|
|-12-14-15----------15-14-15-----|
|--------------------------------|
|--------------------------------|
...story
|-----------------------------------|
|-----------------------------------|
|-------------12--------------------|
|-------12-14----15-14-15--14-12----|
|-12-15-----------------------------|
|-----------------------------------|
...harlem
|-------------------------|
|-------------------------|
|---7---------------------|
|-9---10-9-10-10p9--------|
|-------------------------|
|-------------------------|
...star
|---------------------------------------12-12-12-12-13-----
|-----------------12-----13-----15-------------------------
|----------14----------------------------------------------
|----12-14-----14-----14-----------------------------------
|-15-------------------------------------------------------
|----------------------------------------------------------
...maria maria
---12-13-12-15-13-12-13p12------|
--------------------------15----|
--------------------------------|
--------------------------------|
--------------------------------|
--------------------------------|
...East L.A.
|-----------------------------------------------------------
|-------12-13-12-15-12-13-13--12--12------------------------
|----14-------------------------------14--------------------
|-14------------------------------------------14-15-14------
|-----------------------------------------------------------
|-----------------------------------------------------------
...guitar, yeah
-------------------------------------|
-------------------------------------|
--------------12---------------------|
--------12-14----15-14-15-14-12------|
--14-15------------------------------|
-------------------------------------|
...Santana (Chorus - Electric)
|-12-----12-13-12-------------12-----12-17-12-------------12--12-----
|------------------13------13------------------13------13 --15-------
|-----------------------14--------------------------14---------------
|--------------------------------------------------------------------
|--------------------------------------------------------------------
|--------------------------------------------------------------------
--12-13-12-------------12--12-12--12-12-12 -12-12-12-------|
------------13------13-----13-13--13-13-13 -13-13-13-15----|
-----------------14-------------------------------------14-|
-----------------------------------------------------------|
-----------------------------------------------------------|
-----------------------------------------------------------|
...maria maria (classical)
|----------------------------------------|
|-------------8--8-----------------------|
|----7-9-10-9-------10--10--9--9---------|
|-10-------------------------------10\---|
|----------------------------------------|
|----------------------------------------|
...story
|------7-7-8-8-8-7-10-8-7---------|
|---10--------------------10------|
|-9-------------------------------|
|---------------------------------|
|---------------------------------|
|---------------------------------|
...harlem
|-----------------------------|
|--------8--------------------|
|-9-10-9---10-9---------------|
|----------------10h12p10-----|
|-----------------------------|
|-----------------------------|
...star, oh
|-------------------------|
|----------12-12-13-13----|
|-14-13-14----------------|
|-------------------------|
|-------------------------|
|-------------------------|
maria maria
|------------------------------------------------|
|-15-15-15--------------------------------15-----|
|----------14--14----------------------14--------|
|------------------15--12-----12-14-15-----------|
|--------------------------12--------------------|
|------------------------------------------------|
...East L.A.
|-12-15-15--13-12----------12-12-------------|
|-----------------15-13-15-------------------|
|----------------------------------14-14-----|
|--------------------------------------------|
|--------------------------------------------|
|--------------------------------------------|
...guitar
|---7-10-8-7-8-7-8-7----7---------|
|-8------------------10-----------|
|---------------------------------|
|---------------------------------|
|---------------------------------|
|---------------------------------|
...Santana (electric)
|-12-----12-13-12-------------12--12-----12-13-12-------------12--12------
|------------------13------13---13-----------------13------13---15--------
|-----------------------14------------------------------14----------------
|-------------------------------------------------------------------------
|-------------------------------------------------------------------------
|-------------------------------------------------------------------------
-12-17-12-------------12-12-12-12-12-12----------|
-----------13------13-------13-13-13-13-15-------|
----------------14-------------------------14----|
-------------------------------------------------|
-------------------------------------------------|
-------------------------------------------------|
[/center]
[/center]
الرجوع الى أعلى الصفحة اذهب الى الأسفل
معاينة صفحة البيانات الشخصي للعضو
loco del flamenco
مشرف فن الفلامنكو
avatar

ذكر
عدد الرسائل : 1225
العمر : 98
البلد : viva España
المزاج : flamenco en mi sangre
المزاج :
اوسمة :
تاريخ التسجيل : 23/10/2007

مُساهمةموضوع: رد: ماريا ماريا Maria maria Carlos Santana tabs   السبت سبتمبر 27, 2008 9:41 am

vale muchas gracias 6987gjfg
الرجوع الى أعلى الصفحة اذهب الى الأسفل
معاينة صفحة البيانات الشخصي للعضو
 
ماريا ماريا Maria maria Carlos Santana tabs
الرجوع الى أعلى الصفحة 
صفحة 1 من اصل 1

صلاحيات هذا المنتدى:لاتستطيع الرد على المواضيع في هذا المنتدى
منتدى قيتارة :: قسم القيتار :: كوردات القيتار ونوتات القيتار-
انتقل الى: