دروس+القيتار+ و+نوتات+و+فديو+غيتار+كوردات+تعليم
 
الرئيسيةس .و .جبحـثالتسجيلالمجموعاتدخول

شاطر | 
 

 كوردات Amr Diab

استعرض الموضوع السابق استعرض الموضوع التالي اذهب الى الأسفل 
كاتب الموضوعرسالة
guitara
Admin


انثى
عدد الرسائل : 461
العمر : 116
تاريخ التسجيل : 10/08/2007

مُساهمةموضوع: كوردات Amr Diab   السبت أغسطس 11, 2007 5:44 am

_Tamaly Maak

__Bm_____________________G____________________A_______F_______
E--------------------------------------------------------------------------------------------------
A--------------------------------------------------------------------------------------------------
D--2-4--4---4-2-4--4------2-4----------------4--------4-2----4-------------------------------------
G------0----------0------------2-0--0-0--0----2--0---- ----0---------------------------------------
B--------------------------------------------------------------------------------------------------
E--------------------------------------------------------------------------------------------------

Bm___________________________
tamaly ma3ak ma3ak 2lby ma3ak roo7y
__G________________________A___________________________________F_____
ya a3`la 7abib ya a3`la 7abiib tamaly fe baly w f alby wala bet3`eeb
G____________________A___________F___
tamaly wa7eshni law 7ata bakoon wayak

Bm________________
tamaly 7abiby bashta2lak
Bm________________
tamaly 3inay tendahlak
A_______________G_____F#_
we law 7awalaya kol el kon
A________________F____Bm
bakoon ya 7abiby me7tagalk
Bm_________
Heeeeeeeeeeh

Then play the solo part
A--------------------------------------------------------------------------------------------------
D--4--------------------------------------------------------------------------------4--------------
G--------------------------------------------------------------------------0--0-2-0----------------
B----0-2-3-----3-2-0---3-2-0-----------3-2-3-----------3-3-3--2-2-2--0-0---------------------------
E----------2-0---------------5-3-2-3-2-------0---0-0-0---------------------------------------------


عدل سابقا من قبل guitara في الثلاثاء نوفمبر 24, 2009 11:51 am عدل 2 مرات
الرجوع الى أعلى الصفحة اذهب الى الأسفل
معاينة صفحة البيانات الشخصي للعضو http://guitara.yoo7.com
guitara
Admin


انثى
عدد الرسائل : 461
العمر : 116
تاريخ التسجيل : 10/08/2007

مُساهمةموضوع: Leily Nhary   السبت أغسطس 11, 2007 5:47 am

[ E---------------------|----------------------|
A---------------------|----------------------|
D---------------------|----------------------|
g---------------------|----------7-----------|
b-------------8-7-8---|5-5-6-5---------------|
e-5-5-5-5------------5|----------------------|

Dm_____C
leily nhary
_Dm______C
ta3ala 7abiby
____Dm______C
la malama 7abiby
_____Dm____C
khody leek
Dm_____C
laily nhary
_Dm______C
ta3ala 7abiby
______Dm_____C
2alby yama 7abiby
_______Dm___C
khaf 3alaik

Am_____________________D
ya rait ana ashoofak 2osady
A#_______________Gm_____Am
ya rait hawak da kan 7ob 3ady
C_______A#_______Gm_____Am
ganbak 7ayaty dy agmal 7ayah


E--5-6-8-----------|-------------------|-------------------------|--------------------------------------|
A---------5-7-8----|-------------------|-------------------------|--------------------------------------|
D----------------5-|-7-7-5-7------7----|--------------8-----7----|--------------------------------------|
G------------------|----------------7--|-----7---5--7---5-----7--|-----7---5--7--5-7--------------------|
B------------------|------------------5|-6-5---5----------------5|-6-5---5-----------5-6-5-6-8----------|
E------------------|-------------------|-------------------------|-------------------------------5--8-5-|

|---------------------------------|------------------------------------|----------------------------------|
|---------------------------------|------------------------------------|----------------------------------|
|---------------------------------|------------------------------------|----------------------------------|
|---------------------------------|------------------------------------|----------------------------------|
|10------------10-----------------|-------------18-18--17-17--15-17-15-|18--18-18---15-15--13-13----------|
|----10-12-13-----12-13---12-13-12|15s17-17-17-------------------------|17--17-17---13-13--12-12--10-12-10|


|-----------------------------------------------|
|-----------------------------------------------|
|-----------------------------------------------|
|-----------------------------------------------|
|-----------------------------------------------|
|12-10-12-10-12-10-12-10-12-10-12-10-12-10-12-10|
الرجوع الى أعلى الصفحة اذهب الى الأسفل
معاينة صفحة البيانات الشخصي للعضو http://guitara.yoo7.com
guitara
Admin


انثى
عدد الرسائل : 461
العمر : 116
تاريخ التسجيل : 10/08/2007

مُساهمةموضوع: Osad Einy   السبت أغسطس 11, 2007 5:51 am

Osad Einy
Cm Ab
---------8--11----|------------------11----11-|
--------8-8-------|----------------13--13-----|
-------8---8------|--------------13------13---|
-5-8-10-----------|-12-12-10-8-13-------------|
------------------|---------------------------|
-----8------------|---------------------------|

Bb Cm
-------------------10----13-|-------------------8--11-|
-----------------11--11-----|------------------8-8----|
---------------10------10---|-----------------8---8---|
-13-13-13h15-12-------------|-12-12-12b10-8-10--------|
----------------------------|-------------------------|
----------------------------|---------------8---------|

this is the Riff that guitar 2 plays,it's repeated a lot througout the songs

Cm Ab Bb Cm
-----------|---------------|----------------|-----------|
-----------|---------------|----------------|-----------|
-0-3-3s5-5-|-8-8-7-5-7-8-8-|-8-8-8s10-8s7-7-|-7-7-5-3-5-|
-----------|---------------|----------------|-----------|
-----------|---------------|----------------|-----------|
-----------|---------------|----------------|-----------|

Verse : you can strum the barred chords or play the intro pattern,
I suggest both Smile
Cm
We bena ma3ad
Ab
law e7na b3ad
Bb
akeed rage3 we law
Cm
beene we beeno belad

Fm6
Osad 3eene
Cm
fey kol makan
Fm6
Osad 3eene
Cm
Fey Kol Makan

Eb
We men tanee akeed rag3een
Ab6
ana dayeb we kole 7aneen
Bb
wala 3omree abee3 law meen
Cm
osad 3eene

same for the all verses

Solo :
-----------|----------------------------------|
-----------|------------6s8s6-----------------|
-0-3-3s5-5-|-8-8b7-5h7--------7-7h8-0-5s7-5-0-|
-----------|----------8-----------------------|
-----------|----------------------------------|
----------------------------------------------|

---------------------------------------|
-4s6-6-6-6-6s4-4-4-4-3-3-3-1-3-4-1-3-4-|
---------------------------------------|
---------------------------------------|
---------------------------------------|
---------------------------------------|

----8-10-11---|-13-13-13-12-10hp11-11--------|
-8-9--------9-|----------------------9-------|
--------------|------------------------10s12-|
--------------|------------------------------|
--------------|------------------------------|
--------------|------------------------------|

---11-11-11-10-10-8--8----|
--------------------------|
---13-13-13-12-12-10-10---|
--------------------------|
--------------------------|
--------------------------|
الرجوع الى أعلى الصفحة اذهب الى الأسفل
معاينة صفحة البيانات الشخصي للعضو http://guitara.yoo7.com
guitara
Admin


انثى
عدد الرسائل : 461
العمر : 116
تاريخ التسجيل : 10/08/2007

مُساهمةموضوع: Yedo2 El Bab   السبت أغسطس 11, 2007 5:52 am

Yedo2 El Bab
__Em__________Am
yedo2 el bab 2a2ool heyya
__C____________D_______Bm
2a2ool reg3et khalas leyya
===========================


___Em___________E_______Am
we tekhlas 3'orbety we afr7
____D____________Bm7___E
we akhaf men far7ety afta7
Am_______________D
tekoon la3ba el zenoon beyya
___Am_________Bm
we tetla3 tany mesh heyya

___Em_____________Am
we mashy ba2ool we eh yemna3
__C__________D______Bm
te7en le 7obbaha we terga3

__Em__________E_____Am
la2et-ha gayya bet2arrab
__D____________Bm7____E
wa2aft beshoo2y mesta3'rab
Am_______________D
tekoon la3ba el zenoon beyya
___Am________Bm
we tetla3 tany mesh heyya

Em____________Am
da alby dab fe da22atoh
___C______________D____Bm
we 2ah mel shoo2 we 2aw2ato

___Em_____________E______Am
da khadny el wahm meet marra
___D___________Bm7____E
we kan nefsy wal lw marra
Am_____________D
matel3absh el zenoon beyya
___Am_________Bm
we tetla3 ba3daha heyya
الرجوع الى أعلى الصفحة اذهب الى الأسفل
معاينة صفحة البيانات الشخصي للعضو http://guitara.yoo7.com
guitara
Admin


انثى
عدد الرسائل : 461
العمر : 116
تاريخ التسجيل : 10/08/2007

مُساهمةموضوع: Khad alby ma3ah   السبت أغسطس 11, 2007 5:54 am

Khad alby ma3ah
Cm
7abiby khad alby ma3ah
_______G#
7abiby ma2darsh ansah
Fm_____________________________Gsus4___G
__7abiby kol amaly enny 23ish wayyah wayyah

_______Cm
7abiby khad alby ma3ah
_______G#
7abiby ma2darsh ansah
Fm_____________________________Gsus4_G
__7abiby 3ando gar7y we 3ando dawah dawah
=================================


Cm______G#__________Gm____A#
yomha 2wwel makallemnyyyyyyyy
Cm______G#___________A#______Gm
walla madretsh belly ana feeh
Cm_____G#_____________Gm______A#
fag2a tele3 el kalam mennyyyyyyyyy
Cm_______G#_____________A#_____Gm
2olto shoft el 3'aram fe 3naih



Cm______G#____________Gm_____A#
7obbo howwa elly khallanyyyyyyyyyy
Cm_______G#________A#_____Gm
al2a lel donya ta3m gedid
Cm_______G#_________Gm_____A#
3ashe2 27lamy wakhdanyyyyyyyyyyy
Cm______G#___________A#_____Gm
tayeh 7ayran we howwa be3id
الرجوع الى أعلى الصفحة اذهب الى الأسفل
معاينة صفحة البيانات الشخصي للعضو http://guitara.yoo7.com
guitara
Admin


انثى
عدد الرسائل : 461
العمر : 116
تاريخ التسجيل : 10/08/2007

مُساهمةموضوع: Khad alby ma3ah   السبت أغسطس 11, 2007 5:54 am

Khad alby ma3ah
Cm
7abiby khad alby ma3ah
_______G#
7abiby ma2darsh ansah
Fm_____________________________Gsus4___G
__7abiby kol amaly enny 23ish wayyah wayyah

_______Cm
7abiby khad alby ma3ah
_______G#
7abiby ma2darsh ansah
Fm_____________________________Gsus4_G
__7abiby 3ando gar7y we 3ando dawah dawah
=================================


Cm______G#__________Gm____A#
yomha 2wwel makallemnyyyyyyyy
Cm______G#___________A#______Gm
walla madretsh belly ana feeh
Cm_____G#_____________Gm______A#
fag2a tele3 el kalam mennyyyyyyyyy
Cm_______G#_____________A#_____Gm
2olto shoft el 3'aram fe 3naih



Cm______G#____________Gm_____A#
7obbo howwa elly khallanyyyyyyyyyy
Cm_______G#________A#_____Gm
al2a lel donya ta3m gedid
Cm_______G#_________Gm_____A#
3ashe2 27lamy wakhdanyyyyyyyyyyy
Cm______G#___________A#_____Gm
tayeh 7ayran we howwa be3id
الرجوع الى أعلى الصفحة اذهب الى الأسفل
معاينة صفحة البيانات الشخصي للعضو http://guitara.yoo7.com
ure_chaldean
قيتارة جديد
قيتارة  جديد


عدد الرسائل : 13
تاريخ التسجيل : 05/10/2007

مُساهمةموضوع: رد: كوردات Amr Diab   الأربعاء نوفمبر 07, 2007 6:29 am

هاي شونك انشألله بخير بس ممكن طلب اطلب منك اريد تاب لاغاني عمر دياب كلها وخصاتا تملي معاك بس ان اتكون على وتر او وترين لان ما اكدر اعزف اكثر من وتر اتصير صعبه عليه واذا امكن وصاد عيني وبعد اليالي انا اخذت وصاد عيني بس مقطع الاول وعزفتها وكلش جميله بس اريد مقط الثاني او التكمله مالتها وراح اخلي تاب مال صغيرة وكنت اصغيرون هاي اني وصديقي عازفيها وكلش صحيحه يعني اني ما اخلي شيء اذا ما اعزفه ويكون صحيح
الرجوع الى أعلى الصفحة اذهب الى الأسفل
معاينة صفحة البيانات الشخصي للعضو
I Still
قيتارة جديد
قيتارة  جديد


عدد الرسائل : 4
العمر : 36
تاريخ التسجيل : 27/11/2007

مُساهمةموضوع: رد: كوردات Amr Diab   الخميس فبراير 21, 2008 6:15 am

مشكوره
الرجوع الى أعلى الصفحة اذهب الى الأسفل
معاينة صفحة البيانات الشخصي للعضو http://www.zaguitar.com/forums/uploads/av-4.gif
وادى المحبة1
قيتارة جديد
قيتارة  جديد


عدد الرسائل : 5
العمر : 39
تاريخ التسجيل : 02/03/2008

مُساهمةموضوع: رد: كوردات Amr Diab   الأحد مارس 02, 2008 12:17 pm

مشكوووووووووورة
يعطيك العافية على مجهودك
الرجوع الى أعلى الصفحة اذهب الى الأسفل
معاينة صفحة البيانات الشخصي للعضو
guitara
Admin


انثى
عدد الرسائل : 461
العمر : 116
تاريخ التسجيل : 10/08/2007

مُساهمةموضوع: رد: كوردات Amr Diab   الأحد مارس 02, 2008 1:58 pm

وادى المحبة1 كتب:
مشكوووووووووورة
يعطيك العافية على مجهودك

لاشكر على واجب نحن في الخدمة
اهلا وسهلا
cheers
الرجوع الى أعلى الصفحة اذهب الى الأسفل
معاينة صفحة البيانات الشخصي للعضو http://guitara.yoo7.com
عازف الليل
قيتارة جديد
قيتارة  جديد


عدد الرسائل : 4
العمر : 24
تاريخ التسجيل : 08/04/2008

مُساهمةموضوع: رد: كوردات Amr Diab   الثلاثاء أبريل 08, 2008 12:25 pm

مع احترامي الك بس هادا الحكي غلط لانك انت بتحفظهم تحفيظ مش فهم يعني بدل ما تحط الارقام والطلاسم التاب وغيره اقول مثلا
ليلي نهاري
لا لا دو ري ري ري دو سي لا صول
هيك احسن واللي ما بيعرف السلم الموسيقي على الجيتار يتعلمو فيش اسهل منه
وبعدين شوي شوي بتصير تعطيهم الاشكال الايقاعييةاذا انت معني تفيد الناس
لانو الشغل اللي انت حاطه بيخليش الواحد يعزف غير اغنية واحدة فقط اما لما (يصلفجها) اذنه بتصبح اقوى واحتمال بصير يعزف اغاني اكتر
الرجوع الى أعلى الصفحة اذهب الى الأسفل
معاينة صفحة البيانات الشخصي للعضو
ahmed2000
قيتارة جديد
قيتارة  جديد


ذكر
عدد الرسائل : 9
العمر : 28
علم بلدك :
المزاج :
تاريخ التسجيل : 10/05/2008

مُساهمةموضوع: رد: كوردات Amr Diab   السبت مايو 17, 2008 1:33 am

مشكورين عله الجهود الطيبة
الرجوع الى أعلى الصفحة اذهب الى الأسفل
معاينة صفحة البيانات الشخصي للعضو
اعقل مجنونه
قيتارة جديد
قيتارة  جديد


عدد الرسائل : 3
العمر : 23
المزاج :
تاريخ التسجيل : 10/06/2008

مُساهمةموضوع: رد: كوردات Amr Diab   الأربعاء يونيو 11, 2008 8:12 pm

مشكووووورة خيتو ع المكوردات الرووعه يعطيكي العافيه


سلااموو
الرجوع الى أعلى الصفحة اذهب الى الأسفل
معاينة صفحة البيانات الشخصي للعضو
mario zegnoti
قيتارة فعال
قيتارة  فعال


ذكر
عدد الرسائل : 95
العمر : 30
البلد : العراق
الوظيفة : مهندس
علم بلدك :
تاريخ التسجيل : 19/10/2008

مُساهمةموضوع: رد: كوردات Amr Diab   الجمعة أكتوبر 24, 2008 2:55 am

مشكوره على الجهود الجيده جدا

اذا تسمحين بملاحظه ....لو كانت مكتوبه على شكل ملف مرفق ,لكانت افضل لانه يوجد تداخل بين الاسطر ولا يمكنني قراءه التاب بصوره جيده( غير مرتبه) لا ادري ربما السبب في متصفحي

ولكن علعمووم بارك الله فيك


gf5+5+kll
الرجوع الى أعلى الصفحة اذهب الى الأسفل
معاينة صفحة البيانات الشخصي للعضو
nono_85
قيتارة جديد
قيتارة  جديد


عدد الرسائل : 16
العمر : 31
تاريخ التسجيل : 09/11/2008

مُساهمةموضوع: رد: كوردات Amr Diab   الأحد نوفمبر 09, 2008 11:11 pm

شكرا جزيلا على المجهود المبذل
الرجوع الى أعلى الصفحة اذهب الى الأسفل
معاينة صفحة البيانات الشخصي للعضو
ميامي
قيتارة جديد
قيتارة  جديد


عدد الرسائل : 29
العمر : 49
تاريخ التسجيل : 09/12/2008

مُساهمةموضوع: رد: كوردات Amr Diab   الثلاثاء ديسمبر 09, 2008 3:15 am

ممكن تكون اوضح الاكوردات وتكون اسهل
الرجوع الى أعلى الصفحة اذهب الى الأسفل
معاينة صفحة البيانات الشخصي للعضو
ERicCLapTon
قيتارة جديد
قيتارة  جديد


ذكر
عدد الرسائل : 22
العمر : 29
البلد : UAE
الوظيفة : $^-_إرهـــــابــــي
المزاج : $^-_FLASH
المزاج :
تاريخ التسجيل : 19/11/2008

مُساهمةموضوع: رد: كوردات Amr Diab   الخميس يناير 01, 2009 11:26 am

شكراا على المجهود الكبير

وابصم بالعشر انك في القمة cheers
الرجوع الى أعلى الصفحة اذهب الى الأسفل
معاينة صفحة البيانات الشخصي للعضو
oejf
قيتارة جديد
قيتارة  جديد


عدد الرسائل : 8
العمر : 23
تاريخ التسجيل : 19/04/2009

مُساهمةموضوع: رد: كوردات Amr Diab   الأحد أبريل 19, 2009 12:13 pm

gd gd bs alsolo many fahmo ... ??? a7esoO ml5b6
الرجوع الى أعلى الصفحة اذهب الى الأسفل
معاينة صفحة البيانات الشخصي للعضو
khalelea
قيتارة جديد
قيتارة  جديد


عدد الرسائل : 38
تاريخ التسجيل : 16/09/2007

مُساهمةموضوع: رد: كوردات Amr Diab   الخميس نوفمبر 05, 2009 9:02 pm

انا مش عارف اتغير...تاب لتامر حسني
الرجوع الى أعلى الصفحة اذهب الى الأسفل
معاينة صفحة البيانات الشخصي للعضو
 
كوردات Amr Diab
استعرض الموضوع السابق استعرض الموضوع التالي الرجوع الى أعلى الصفحة 
صفحة 1 من اصل 1

صلاحيات هذا المنتدى:لاتستطيع الرد على المواضيع في هذا المنتدى
منتدى قيتارة :: قسم القيتار :: كوردات القيتار ونوتات القيتار-
انتقل الى: